Log in

One click and you are in

Login with Facebook Login with Google

Why sign up and log in

Guitar Tabs Explorer
Hippo Campus bass tabs for Violet

Bass tabs

Tuning: Standard (E A D G)


Intro:

G|---------------------------------------------------------------------------|
D|---------------------------------------------------------------------------|
A|---------------------------------------------------------------------------|
E|--0--0-0---0-0-0---0-0-0-0-0-7-7---0--0-0---0-0-0---0-0-0-0-0-0-0----------|
Intro pt 2:

G|---------------------------------------------------------------------------|
D|---------------------------------------------------------------------------|
A|---------------------------------------------------------------------------|
E|--2--2-2---2-2-2---2-2-2-2-2-4-4---5--5-5---5-5-5---5-5-5-5-5-5-5----------|

G|---------------------------------------------------------------------------|
D|---------------------------------------------------------------------------|
A|---------------------------------------------------------------------------|
E|--0--0-0---0-0-0---0-0-0-0-0-0-0---0--0-0---0-0-0---0-0-0-0-0-0-0----------|

G|---------------------------------------------------------------------------|
D|---------------------------------------------------------------------------|
A|---------------------------------------------------------------------------|
E|--2--2-2---2-2-2---2-2-2-2-2-4-4---5--5-5---5-5-5---5-5-5-5-5-7-7--0-------|


Verse:
  see with golden eyes   and the novocain       lullaby
  reach and crack the sky with an open mouth      peace inside
G|--------------------------------------------------------------------------||
D|-------------------------------------------------------------------------o||
A|-------------------------------------------------------------------------o||
E|--0--------------------------------9--------------------5-----------------||

those american eyes
G|---------------------------------------------------------------------------|
D|---------------------------------------------------------------------------|
A|---------------------------------------------------------------------------|
E|------2--4-4-4-4-4-4-4-4-4-4-4-4-4-4--2--4-4-4-4-4-4-4-4-4-4-4-4-4-4-------|

    cheery ckeeks        and bloodshot eyes
  see peace on earth       and truth in lies
G|--------------------------------------------------------------------------||
D|-------------------------------------------------------------------------o||
A|-------------------------------------------------------------------------o||
E|------7--9-9-9-9-9-9-9-9-9-9-9-9-9-9--5--5-5-5-5-5-5-5-5-5-5-5-5-5-5------||

Chorus:

G|---------------------------------------------------------------------------|
D|---------------------------------------------------------------------------|
A|---------------------------------------------------------------------------|
E|--12--0-12--12-0-12---12-0-12-0-12-0-12---12--0-12--12-0-12-0-12-0-12------|

G|---------------------------------------------------------------------------|
D|---------------------------------------------------------------------------|
A|---------------------------------------------------------------------------|
E|--2--2-2---2-2-2---2-2-2-2-2-4-4---5--5-5---5-5-5---5-5-5-5-5-5-5----------| x2


verse 2:

    then youll come to me
    (clean the sea youll see)
    american eyes
G|---------------------------------------------------------------------------|
D|---------------------------------------------------------------------------|
A|---------------------------------------------------------------------------|
E|------2--4-4-4-4-4-4-4-4-4-4-4-4-4-4--2--4-4-4-4-4-4-4-4-4-4-4-4-4-4-------|

  in bitter wind           and agony
   (that the sky is lost     of the company)
  see peace on earth         and truth in lies
G|--------------------------------------------------------------------------||
D|-------------------------------------------------------------------------o||
A|-------------------------------------------------------------------------o||
E|------7--9-9-9-9-9-9-9-9-9-9-9-9-9-9--5--5-5-5-5-5-5-5-5-5-5-5-5-5-5------|| (x3)


Chorus:

G|---------------------------------------------------------------------------|
D|-----------R---E---S---T---------------------------------------------------|
A|---------------------------------------------------------------------------|
E|---------------------------------------------------------------------------|

G|---------------------------------------------------------------------------|
D|---------------------------------------------------------------------------|
A|---------------------------------------------------------------------------|
E|--2--2-2---2-2-2---2-2-2-2-2-4-4---5--5-5---5-5-5---5-5-5-5-5-5-5----------|

G|---------------------------------------------------------------------------|
D|---------------------------------------------------------------------------|
A|---------------------------------------------------------------------------|
E|--12--0-12--12-0-12---12-0-12-0-12-0-12---12--0-12--12-0-12-0-12-0-12------|

G|---------------------------------------------------------------------------|
D|---------------------------------------------------------------------------|
A|---------------------------------------------------------------------------|
E|--2--2-2---2-2-2---2-2-2-2-2-4-4---5--5-5---5-5-5---5-5-5-5-5-5-5----------|

guitar solo:

G|---------------------------------------------------------------------------|
D|---------------------------------------------------------------------------|
A|---------------------------------------------------------------------------|
E|--0--0--0--0--0--0--0--0--0--0--0--0--0--0--0--0---------------------------|

G|---------------------------------------------------------------------------|
D|---------------------------------------------------------------------------|
A|---------------------------------------------------------------------------|
E|--9--9-9--9-9-9--9-9-9-9-9-9-9--5--5-5-5-5-5-5-5-5-5-5-5-5-5-5-0-----------|


Outro:

G|---------------------------------------------------------------------------|
D|---------------------------------------------------------------------------|
A|---------------------------------------------------------------------------|
E|--0--0-0-------0-0---0--0-0-------0-0---2--2-2-------2-2---5--5-5-----5-5--|  x2

G|---------------------------------------------------------------------------|
D|---------------------------------------------------------------------------|
A|---------------------------------------------------------------------------|
E|--0--0-0---0--0--0--0--0-0---0--0-0--0--0--0--0--0-0-----------------------|

G|---------------------------------------------------------------------------|
D|---------------------------------------------------------------------------|
A|---------------------------------------------------------------------------|
E|--2--2-2---2--2--2--2--2-2---5--5-5--5--5--5----5--------------------------|


last riff:

G|---------------------------------------------------------------------------|
D|---------------------------------------------------------------------------|
A|---------------------------------------------------------------------------|
E|--0------------------------------------------------------------------------|

Almost there ...

Sign in to get your own page with links to favourite songs and more. You are just one click away...

Login with Facebook Login with Google