Log in

One click and you are in

Login with Facebook Login with Google

Why sign up and log in

Guitar Tabs Explorer
Hippo Campus bass tabs for Bambi

Bass tabs

Tuning: Standard (E A D G)


Intro:

G|---------------------------------------------------------------------------|
D|---------------------------------------------------------------------------|
A|------------------10-11---------------------------10-13-11-11---11-11-11---|
E|-8-8---10-11-11-----------13-11---8\6---8/11-------------------------------| x2

Verse 1: "I swear to god..."

G|---------------------------------------------------------------------------|
D|---------------------------------------------------------------------------|
A|---------8-10-10---13-15-15-15-14-14-14\11-11---11-11-11---11-11---11-11-11|
E|-11-11---------------------------------------------------------------------|

G|---------------------------------------------------------------------------|
D|---------------------------------------------------------------------------|
A|---------8-10-10---13-15-15-15-14-14-14\11-11---11-11-11---11-11---11-11-11|
E|-11-11---------------------------------------------------------------------|


Chorus: "I haven't been much myself..."

G|---------------------------------------------------------------------------|
D|---------------------------------------------------------------------------|
A|-6-6-------------------------10-13-11-11---11-11-11---11-11---11-11-11-----|
E|-------3-3---6-8---10-13-11------------------------------------------------|

G|---------------------------------------------------------------------------|
D|---------------------------------------------------------------------------|
A|-6-6-------------------------10-13-11-11---11-11-11---11-11---11-11-11-----|
E|-------3-3---6-8---10-13-11------------------------------------------------|

Guitar and Drumm Break:


Verse 2: "The timings poor..."

G|---------------------------------------------------------------------------|
D|---------------------------------------------------------------------------|
A|---------8-10-10---13-15\3-15-14-14-14\11-11---11-11-11---11-11---11-11-11-|
E|-11-11---------------------------------------------------------------------|

G|---------------------------------------------------------------------------|
D|---------------------------------------------------------------------------|
A|---------8-10-10---13-15-15-15-14-14-14\11-11---11-11-11---11-11---11-11-11|
E|-11-11---------------------------------------------------------------------|


Chorus:

G|---------------------------------------------------------------------------|
D|---------------------------------------------------------------------------|
A|-6-6-------------------------10-13-11-11---11-11-11---11-11---11-11-11-----|
E|-------3-3---6-8---10-13-11------------------------------------------------|

G|---------------------------------------------------------------------------|
D|---------------------------------------------------------------------------|
A|-6-6-------------------------10-13-11-11---11-11-11---11-11---11-11-11-----|
E|-------3-3---6-8---10-13-11------------------------------------------------|

G|---------------------------------------------------------------------------|
D|---------------------------------------------------------------------------|
A|------------------10-11---------------------------10-13-11-11---11-11-11---|
E|-8-8---10-11-11-----------13-11---8\6---8/11-------------------------------|

G|---------------------------------------------------------------------------|
D|---------------------------------------------------------------------------|
A|------------------10-11---------------------------10-13-11-11---11-11-11---|
E|-8-8---10-11-11-----------13-11---8\6---8/11-------------------------------|


Bridge: "Wait and see..."

G|---------------------------------------------------------------------------|
D|---------------------------------------------------------------------------|
A|------------------10-11---------------------------10-13-11-11---11-11-11---|
E|-8-8---10-11-11-----------13-11---8\6---8/11-------------------------------|

G|---------------------------------------------------------------------------|
D|---------------------------------------------------------------------------|
A|------------------10-11---------------------------10-13-11-11---11-11-11-11|
E|-8-8---10-11-11-----------13-11---8\6---8/11-------------------------------|


Chorus:

G|---------------------------------------------------------------------------|
D|---------------------------------------------------------------------------|
A|------------------10-11---------------------------10-13-11-11---11-11-11---|
E|-8-8---10-11-11-----------13-11---8\6---8/11-------------------------------|

G|---------------------------------------------------------------------------|
D|---------------------------------------------------------------------------|
A|------------------10-11---------------------------10-13-11-11---11-11-11---|
E|-8-8---10-11-11-----------13-11---8\6---8/11-------------------------------|


Outro:

G|---------------------------------------------------------------------------|
D|---------------------------------------------------------------------------|
A|------------------10-11---------------------------10-13-11-11---11-11-11---|
E|-8-8---10-11-11-----------13-11---8\6---8/11-------------------------------|

G|---------------------------------------------------------------------------|
D|---------------------------------------------------------------------------|
A|------------------10-11---------------------------10-13-11-11---11-11-11---|
E|-8-8---10-11-11-----------13-11---8\6---8/11-------------------------------|


Guitar End:


************************************

| /  Slide up
| \  Slide down

*********

Almost there ...

Sign in to get your own page with links to favourite songs and more. You are just one click away...

Login with Facebook Login with Google