Log in

One click and you are in

Login with Facebook Login with Google

Why sign up and log in

Guitar Tabs Explorer
H.I.M. bass tabs for Wings of a butterfly

Bass tabs

*Intro*

G:-------|
D:-------|
A:-------|
E:446~44~|

*Chorus*

G:----------------------------|
D:----------------------------|
A:----------------------------|
E:666661/4444444444444421~4444|

G:----------------------------|
D:----------------------------|
A:----------------------------|
E:666661/4444444444444421~----|

*First Verse*

G:----------------------------|
D:----------------------------|
A:----------------------------|
E:466-644-464-686-4-----------|

G:----------------------------|
D:----------------------------|
A:----------------------------|
E:466-6~6~6~-644-464-686-4~6~-|

*Chorus*

G:----------------------------|
D:----------------------------|
A:----------------------------|
E:666661/4444444444444421~4444|

G:----------------------------|
D:----------------------------|
A:----------------------------|
E:666661/4444444444444421~4444|

*Bit after chorus*

G:----------------------------|
D:----------------------------|
A:----------------------------|
E:666661/4444444444444421~4444|

G:----------------------------|
D:----------------------------|
A:----------------------------|
E:666661/4444444444444421~----|

*2nd verse*

G:----------------------------|
D:----------------------------|
A:----------------------------|
E:466-6~6~6~-644-464-686-4~6~-|

G:----------------------------|
D:----------------------------|
A:----------------------------|
E:466-6~6~6~-644-464-686-4~6~-|

G:----------------------------|
D:----------------------------|
A:----------------------------|
E:4~6~------------------------|

*Chorus*

G:----------------------------|
D:----------------------------|
A:----------------------------|
E:666661/4444444444444421~4444|

G:----------------------------|
D:----------------------------|
A:----------------------------|
E:666661/4444444444444421~----|

G:----------------------------|
D:----------------------------|
A:----------------------------|
E:666661/4444444444444421~4444|

G:----------------------------|
D:----------------------------|
A:----------------------------|
E:666661/4444444444444421~----|

*Breakdown*

G:----------------------------|
D:----------------------------|
A:--2-1-------2-1--2-1-----2-1|
E:4~---4-2-4~---4~---4-2-4~---|

G|----------------------------|
D|----------------------------|
A|------2-1--------------2-1~-|
E|--4~-----4-2-0-2---4~-------|

G|----------------------------|
D|----------------------------|
A|------2-1--------------2-1~-|
E|--4~-----4-2-0-2---4~-------|

*Ending chorus*

G:----------------------------|
D:----------------------------|
A:----------------------------|
E:666661/4444444444444421~4444|

G:----------------------------|
D:----------------------------|
A:----------------------------|
E:666661/4444444444444421~----|

G:----------------------------|
D:----------------------------|
A:----------------------------|
E:666661/4444444444444421~4444|

G:----------------------------|
D:----------------------------|
A:----------------------------|
E:666661/4444444444444421~----|

G:----------------------------|
D:----------------------------|
A:----------------------------|
E:666661/4444444444444421~4444|

G:----------------------------|
D:----------------------------|
A:----------------------------|
E:666661/4444444444444421~-44~|

Almost there ...

Sign in to get your own page with links to favourite songs and more. You are just one click away...

Login with Facebook Login with Google