Log in

One click and you are in

Login with Facebook Login with Google

Why sign up and log in

Guitar Tabs Explorer
H.I.M. tabs for Wicked game

Guitar tabs with lyrics

Title:     Wicked Game
Band:      His Infernal Majesty
Album:     Greatest Love Songs Vol. 666
Tabbed by: Graham Bucci (alexjessop143@hotmail.com)
This song is a remake of the song by Chris Issac.
This tab is written for 1 guitar but it seems that
there are 2 guitars in the recorded version.  I also
don t know if this is in the right key because I
really can t tell the difference, so let us just hope
that it is.


Standard tuning: A chord diagramE MajorE A chord diagramA augmentedA A chord diagramD MajorD g b e

x = mute
/ = slide
h = hammer on

The song can be played one of 2 ways, depending on
your preference.  I have included a tab for each.

------------------------------------------------------------


Intro 1:
     A chord diagramBB          A chord diagramA augmentedA          A chord diagramE MajorE
e|----------------------------------------------------|
b|---------------------------------------2------------|
g|--4-xxxxxxx--2-xxxxxxx--1-xxxxxxx--2h4---2-1----1-2-|
A chord diagramD MajorD|--4-xxxxxxx--2-xxxxxxx--2-xxxxxxx-------------------|
A chord diagramA augmentedA|--2-xxxxxxx--0-xxxxxxx--2-xxxxxxx-------------------|
A chord diagramE MajorE|----------------------------------------------------|
                                   [muting in background]
                             or

Intro 2:                                                  x2
     A chord diagramBB          A chord diagramA augmentedA          A chord diagramE MajorE
e|----------------------------------------------------|
b|----------------------------------------------------|
g|--4-xxxxxxx--6-xxxxxxx--9-xxxxxxx------6------------|
A chord diagramD MajorD|--4-xxxxxxx--7-xxxxxxx--9-xxxxxxx--7h9---7-6----6-7-|
A chord diagramA augmentedA|--2-xxxxxxx--7-xxxxxxx--7-xxxxxxx-------------------|
A chord diagramE MajorE|--2-xxxxxxx--5-xxxxxxx--7-xxxxxxx-------------------|
                                   [muting in background]

------------------------------------------------------------

 >From now on I'm only going to show you the first
way of playing it.  If you prefer the other way
then you can easily change it yourself.

------------------------------------------------------------

Verse 1
                                       [1]
e|---------------------------------------|
b|---------------------------------------|
g|--xxxxxxxx-xxxxxxxx-xxxxxxxx-xxxxxxxx--|
A chord diagramD MajorD|--xxxxxxxx-xxxxxxxx-xxxxxxxx-xxxxxxxx--|
A chord diagramA augmentedA|--xxxxxxxx-xxxxxxxx-xxxxxxxx-xxxxxxxx--|
A chord diagramE MajorE|--xxxxxxxx-xxxxxxxx-xxxxxxxx-xxxxxxxx--|
"The world was..."

                                                   [2]
e|----------------------------------------------------|
b|----------------------------------2-----------------|
g|--xxxxxxxx-xxxxxxxx-xxxxxxxx--2h4---2-1-2-xxxxxxxx--|
A chord diagramD MajorD|--xxxxxxxx-xxxxxxxx-xxxxxxxx--------------xxxxxxxx--|
A chord diagramA augmentedA|--xxxxxxxx-xxxxxxxx-xxxxxxxx--------------xxxxxxxx--|
A chord diagramE MajorE|--xxxxxxxx-xxxxxxxx-xxxxxxxx--------------xxxxxxxx--|
"It's strange what..."

                                                   [3]
     A chord diagramBB          A chord diagramA augmentedA          A chord diagramE MajorE
e|----------------------------------------------------|
b|---------------------------------------2------------|
g|--4-xxxxxxx--2-xxxxxxx--1-xxxxxxx--2h4---2-1----1-2-|
A chord diagramD MajorD|--4-xxxxxxx--2-xxxxxxx--2-xxxxxxx-------------------|
A chord diagramA augmentedA|--2-xxxxxxx--0-xxxxxxx--2-xxxxxxx-------------------|
A chord diagramE MajorE|----------------------------------------------------|
                                   [muting in background]
"I'd never dreamed..."


Verse,                          [4]
     A chord diagramBB          A chord diagramA augmentedA          A chord diagramE MajorE
e|--------------------------------:
b|--------------------------------:
g|--4xxxxxxxx-2xxxxxxxx-1xxxxxxxx-:
A chord diagramD MajorD|--4xxxxxxxx-2xxxxxxxx-2xxxxxxxx-:
A chord diagramA augmentedA|--2xxxxxxxx-0xxxxxxxx-2xxxxxxxx-:
A chord diagramE MajorE|--------------------------------:
"And I'd never..."
Fill               Chorus                            [1] [2]
:-----------------:---2-----0--------------------:------:---|
:-----2-----------:-----3-----3---2-0------------:------:---|
:-2h4---2-1--1-2--:-4-----4-----4-----2-1--1-2-4-:-4--4-:-6-|
:-----------------:------------------------------:------:---|
:-----------------:------------------------------:------:---|
:-----------------:------------------------------:------:---|
[muting in back]

------------------------------------------------------------

This tab really isn t all that correct.  There are many things that
need to be changed about it but this tab gives you the general
idea of the song.  Obviously there is more to the song then one

verse and one chorus but it is basically the exact same throughout
the entire song so you can just try to play it by ear.  If you have
any questions or comments just give me a shout at the email
address I provided above.  Enjoi.

Almost there ...

Sign in to get your own page with links to favourite songs and more. You are just one click away...

Login with Facebook Login with Google