Log in

One click and you are in

Login with Facebook Login with Google

Why sign up and log in

Guitar Tabs Explorer
H.I.M. tabs for Rip out the wings of a butterfly

Guitar tabs

HIM tab (rip out the wings of a butterfly)
ACCURATE!! 10-10
Email me if wrong..
if_i_was_like_HIM@hotmail.com

Intro Guitar 1
|------------------------|---------------|------------------------|----------------|
|--6---6---6---4h6p4--4--|---4---4---4---|--4---4---4---2h4p2--2--|--1---1---1--0--|
|----3---3---------------|-1---1---1---1-|----1---1---------------|----0---0-------|X4
Vesre 1
|----------------------------------|
|----------------------------------|
|----------------------------------|
|--3-5-5---5-3-3---3-5-3-5-7-5-3---|
|--3-5-5---5-3-3---3-5-3-5-7-5-3---|
|--3-5-5---5-3-3---3-5-3-5-7-5-3---|


|------------------------------------------------------------|
|------------------------------------------------------------|
|------------------------------------------------------------|
|--9-9-9-9---0-0---7-7-7-7--7-7-7-7---7-6-5---5-5-5-5---7-7--|
|--9-9-9-9---0-0---7-7-7-7--7-7-7-7---7-6-5---5-5-5-5---7-7--|
|--9-9-9-9---0-0---7-7-7-7--7-7-7-7---7-6-5---5-5-5-5---7-7--|
p.m...........................................................

|-------------------------------------------------|
|-------------------------------------------------|
|-------------------------------------------------|
|--9-9-9-9---0-0---7-7-7-7--7-7-7-7---7-6-5---5~--|
|--9-9-9-9---0-0---7-7-7-7--7-7-7-7---7-6-5---5~--|
|--9-9-9-9---0-0---7-7-7-7--7-7-7-7---7-6-5---5~--|

|------------------------------------------|
|------------------------------------------|
|------------------------------------------|
|--3-5-5---3-3---5-3-3--3-5-3-5-7-5-3--2~--|
|--3-5-5---3-3---5-3-3--3-5-3-5-7-5-3--2~--|
|--3-5-5---3-3---5-3-3--3-5-3-5-7-5-3--2~--|


Chorus
|------------------------------------------------------------|
|------------------------------------------------------------|
|------------------------------------------------------------|
|--9-9-9-9---0-0---7-7-7-7--7-7-7-7---7-6-5---5-5-5-5---7-7--|
|--9-9-9-9---0-0---7-7-7-7--7-7-7-7---7-6-5---5-5-5-5---7-7--|
|--9-9-9-9---0-0---7-7-7-7--7-7-7-7---7-6-5---5-5-5-5---7-7--|

|-------------------------------------------------|
|-------------------------------------------------|
|-------------------------------------------------|
|--9-9-9-9---0-0---7-7-7-7--7-7-7-7---7-6-5---5~--|
|--9-9-9-9---0-0---7-7-7-7--7-7-7-7---7-6-5---5~--|
|--9-9-9-9---0-0---7-7-7-7--7-7-7-7---7-6-5---5~--|

|------------------------|---------------|------------------------|----------------|
|--6---6---6---4h6p4--4--|---4---4---4---|--4---4------2h4p2--2---|--1---1---1--0--|
|----3---3---------------|-1---1---1---1-|----1---1---------------|----0---0-------|
|------------------------|---------------|------------------------|----------------|
|------------------------|---------------|------------------------|----------------|
|------------------------|---------------|------------------------|----------------|


Verse 2
|----------------------------------|
|----------------------------------|
|----------------------------------|
|--3-5-5---5-3-3---3-5-3-5-7-5-3---|
|--3-5-5---5-3-3---3-5-3-5-7-5-3---|
|--3-5-5---5-3-3---3-5-3-5-7-5-3---|


|------------------------------------------|
|------------------------------------------|
|------------------------------------------|
|--3-5-5---3-3---5-3-3--3-5-3-5-7-5-3--2~--|
|--3-5-5---3-3---5-3-3--3-5-3-5-7-5-3--2~--|
|--3-5-5---3-3---5-3-3--3-5-3-5-7-5-3--2~--|

|------------------------|---------------|------------------------|----------------|
|--6---6---6---4h6p4--4--|---4---4---4---|--4---4---4---2h4p2--2--|--1---1---1--0--|
|----3---3---------------|-1---1---1---1-|----1---1---------------|----0---0-------|
|------------------------|---------------|------------------------|----------------|
|------------------------|---------------|------------------------|----------------|
|------------------------|---------------|------------------------|----------------|


Bridge or Solo
|----------------------------------------------------------|
|----------------------------------------------------------|
|----------------------------------------------------------|
|----------------------------------------------------------|
|----------------------------------------------------------|
|--4~--7-6-4-2---4~--7-2~--4~--7-6-4-2---4~--7-2~1~-2~-3~--|

|---------------------------------|
|---------------------------------|
|---------------------------------|
|--4~--7-6-4-2-0-2---4~--7-2~-----|X2
|--4~--7-6-4-2-0-2---4~--7-2~-----|
|--4~--7-6-4-2-0-2---4~--7-2~-----|

|------------------------|---------------|------------------------|----------------|
|--6---6---6---4h6p4--4--|---4---4---4---|--4---4---4---2h4p2--2--|--1---1---1--0--|
|----3---3---------------|-1---1---1---1-|----1---1---------------|----0---0-------|
|------------------------|---------------|------------------------|----------------|
|------------------------|---------------|------------------------|----------------|

Other versions of Rip Out The Wings Of A Butterfly

Rip out the wings of a butterfly - introTabs

Almost there ...

Sign in to get your own page with links to favourite songs and more. You are just one click away...

Login with Facebook Login with Google