Log in

One click and you are in

Login with Facebook Login with Google

Why sign up and log in

Guitar Tabs Explorer
H.I.M. tabs for Rip out the wings of a butterfly

Intro

e|---------------------|
b|-8---8---8-8p6---6---|
g|---5---5-------8-----|
d|---------------------|
a|---------------------|
e|---------------------|

e|------------------------
b|---6--6-6-6--6-6-6p4p3-4---4---4-3--|
g|-3---3-3-3-3------------------------|
d|-------------------------3---3------|
a|------------------------------------|
e|------------------------------------|


this is correct because i wrote it the way they play it.  Enjoy ho's

Other versions of Rip Out The Wings Of A Butterfly

Rip out the wings of a butterflyTabs

Almost there ...

Sign in to get your own page with links to favourite songs and more. You are just one click away...

Login with Facebook Login with Google