Log in

One click and you are in

Login with Facebook Login with Google

Why sign up and log in

Guitar Tabs Explorer
H.I.M. bass tabs for Loves requiem

Bass tabs with lyrics

Verse:
G:-------------------------
D:-------------------------
A:------9-------------7----
E:-0-12---12-10-0-7-9------

(Note: The keybord comes along with the bass on the third time that you
play the verse but not at the beginnig of the verse but at the part when
it goes:
A:-------7-
E:-0-7-9---
You are not obligated to play the "0" in between the "10"and the "7" but
I strongly suggest that you do. If you don't do it than do it slower then
how it would have hapened if you did play it.)
Bridge:

G:-------------------
D:-------------------
A:-3-0---------------
E:-----3-0-----------
This goes along with: "from the chains of our war"


Chorus:
G:--------------------------
D:--------------------------
A:-------3-3---------5-5--5-
E:-5---5-----5-3-3-3--------


Riff 1

G:------------------------------
D:------------------------------
A:-7-7-5-5----------------------
E:---------00-0-0-0-0-0-0-0-0---x2

G:------------------------------
D:-----5-3------------------2---
A:-3-3-----5--------3-5--5------
E:-----------3--3-3-------------x2


Riff 2 (x1)

G:------------------------------
D:------------------------------
A:------------------------------
E:-3-3-3-3-3-3-3-3-3-3-3-3-3----

Order :

Verse :     x12

Bridge:     x1

Verse :     x4

Bridge:     x1

Chorus:     x3 (or something like that)

Verse :     x8

Bridge:     x1

Verse :     x4

Bridge:      x1

Almost there ...

Sign in to get your own page with links to favourite songs and more. You are just one click away...

Login with Facebook Login with Google