Log in

One click and you are in

Login with Facebook Login with Google

Why sign up and log in

Guitar Tabs Explorer
H.I.M. tabs for I love you

Guitar tabs with lyrics

Title: I love you
Album: Razorblade Romance

Tabbed by Brandon
Tuning: drop A chord diagramA augmentedA
A chord diagramBB
A chord diagramF#F#
A chord diagramD MajorD
A chord diagramA augmentedA
A chord diagramE MajorE
A chord diagramA augmentedA

Most people seem to think HIM tunes standard, but if you listen to songs
like
Razorblade Kiss or Gone With the Sin, or if you see them play live, you
can
clearly hear they tune down to drop A, which is insanely low. The Lowest

note
this song hits is a D, so you technically could just tune down to drop d
for
this one. Im going to tab it how they play it though.

key:
~        vibrato
'''      tremolo picking
/        slide
h or p   hamer on or pull away
^        harmonic
/*       pick scrape
>        let ring

Intro:
1x
|-----------|
|-----------|
|---5--7----|
|-----------|
|-----------|
|-----------|

4x
|--------------------------------|
|--------------------------------|
|------7-5-5-7--10-9-7-5-7-------|
|-7-7----------------------------|
|--------------------------------|
|--------------------------------|
|--------------------------------|


Verse: guitar just plays more in the background here. Play clean
|-0---------------------0---0---0------------------------0-----|
|-3---5-------3---------3---3---3----5-------3-----------3-----|
|-2------5---------2----2---5---4---------5------2-------2-----|
|--------------------------------------------------------------|
|--------------------------------------------------------------|
|--------------------------------------------------------------|


Pre chorus: 3x
|-----------------------------------------------------------------------|
|-----------------------------------------------------------------------|
|----------------------9-------------9-------------9-------------9------|
|-10------5-----10-10-----10--10-10-----10--10-10-----10--10-10-----10--|
|-10------5-------------------------------------------------------------|
|-10>-----5>------------------------------------------------------------|

|--------------------------------------------------------------|
|--------------------------------------------------------------|
|--------------------------------------------------------------|
|---10-----5-----------5 build up------------------------------|
|---10-----5-----------5-with this-----------------------------|
|---10>----5>----------5-chord---------------------------------|


Chorus 2x
|----------------------------------------|
|----------------------------------------|
|----------------------------------------|
|--7(32x)--10(24x)--5(8x)----------------|
|--7-------10-------5--------------------|
|--7-------10-------5--------------------|


break


Intro is played again 4x


verse again


prechorus


chorus is played 8x, but after the 4th, the intro part comes back
in over it.

end!

Almost there ...

Sign in to get your own page with links to favourite songs and more. You are just one click away...

Login with Facebook Login with Google