Log in

One click and you are in

Login with Facebook Login with Google

Why sign up and log in

Guitar Tabs Explorer
H.I.M. tabs for Beyond redemption

Guitar tabs

Okay. This isnt perfect. But it works, im a begining guitarist, and my first tim
tabbing anything. so if you dont like it, deal with it. love seth.

|-------------------------------------------------------------------------3----|
|-------------------------------------------------------------------------4----|
|-------------------------------------------------------------------------5----|
|-------1-----5-------1-----8--6--5-----1-----5-------1-----3--5--1--0----5----|
|----3-----3-------3-----3-----------3-----3-------3-----3----------------3----|
|------------------------------------------------------------------------------|
Verse
|----------------------------------------------------------------------------------|
|----------------------------------------------------------------------------------|
|----------------------------------------------------------------------------------|
|----------------------------------1-----------------------------------------------|
|---------1-----1--3---------1--------3---------1-----1--3-------------------------|
|----4-------3----------4-------3----------4-------3----------1---1---3--4----6----|


Verse cont.
|-------------------------------------------------------------------------------------------------|
|-------------------------------------------------------------------------------------------------|
|-------------------------------------------------------------------------------------------------|
|----------------------------------1--------------------------------------------------------------|
|---------1-----1--3---------1--------3---------1-----1--3----------------------------------------|
|----4-------3----------4-------3----------4-------3----------1---1---3--4---1---1---3--4----6----|


Chorus                                slow
|-------------------------| |------------------------|
|'-----------------------'| |------------------------|
|-------------------------| |------------------------|
|----5--------------------| |----5-------------------|
|'---3---5---6---8-------'| |----3----5----6----8----|
|--------3---4---6--------| |---------3----4----6----|

intro

verse

chorus x2


Bridge                                                                               x3
|-----------------------------------------------------------------------------------|
|'---------------------------------------------------------------------------------'|
|-----------------------------------------------------------------------------------|
|-----------------------------------------------------------------------------------|
|'---6--6---6--6--6---8--8---8--8--8---10--10---10--10--10---11--11---11--11--11---'|
|-----------------------------------------------------------------------------------|


|-----------------------------------------------------------------------------------|
|-----------------------------------------------------------------------------------|
|-----------------------------------------------------------------------------------|
|----5--5---5--5--5--6---6---6--6--6----7---7----7---7---7----7---7----7---7---7----|
|----6--6---6--6--6--8---8---8--8--8---10--10---10--10--10---11--11---11--11--11----|
|-----------------------------------------------------------------------------------|


Solo
   full....................................       ..                                        1/2b    1/2b
|----------------------------------------------------------------------------------------------------------|
|-----/--/--/--/--/--/--/--/--/--/------/--11------------------------------------/-------/------|
|----10--10--10--10--10--10--10--10--10--10---8--10-------12--10--8--10--12--10--8-----8---7----5---7------|
|-----------------------------------------------------------------------------------10---------------------|
|----------------------------------------------------------------------------------------------------------|
|----------------------------------------------------------------------------------------------------------|
         full                                                                full................
|-------------------------------------------------------------------------------/--/--/--/--/----------------|
|--------/---------------------------------------------------------13---------14--14--14--14--14---13--11--8--11-|
|----8--10---10--8--12--12--15----------8--10--12--15--17----15--12----12--15-------------------------------------|
|-10----------------------------13--10----------------------------------------------------------------------------|
|-----------------------------------------------------------------------------------------------------------------|
|-----------------------------------------------------------------------------------------------------------------|
                full                                       full            full        full           full
|---------------/---------------------10h11p10p8-----------/-----------------------------------------------------|
|13b---13--16--18---16--18--16--15--16-------------11--13--14--13--11--13---/----------/-------------/----------|
|--------------------------------------------------------------------------18---10--8--10--10--8--10--10--10-8---5b|
|------------------------------------------------------------------------------------------------------------------|
|------------------------------------------------------------------------------------------------------------------|
|------------------------------------------------------------------------------------------------------------------|
k. this is kinda crammed together. so yeah. Figure it out and fuckin deal with it.

Almost there ...

Sign in to get your own page with links to favourite songs and more. You are just one click away...

Login with Facebook Login with Google