Log in

One click and you are in

Login with Facebook Login with Google

Why sign up and log in

Guitar Tabs Explorer
H.I.M. tabs for And love said no

Guitar tabs

--------------------------------------------------------------
HIM- And Love Said No
--------------------------------------------------------------


INTRODUCTION** Guitar on is played with an echo, so it sounds like there
are extra notes, but these are what is played

e|--3-----3---------0----------2-----------------------0------------------|
b|----0-----0----------0----------0--------5^3---0------3--0-----------|
g|--------------0----------0----------0------------------------------------|
d|--------------------------------------------------------------------------|
a|--------------------------------------------------------------------------|
A chord diagramE MajorE|--------------------------------------------------------------------------|

e|----------------------------------------------------------------------|
b|----------------------------------------------------------------------|
g|----------------------------------------------------------------------|
e|----------------------------------------------------------------------|
a|----------------------------------------------------------------------|
A chord diagramE MajorE|---3b-3b--0-----------2-----------3-----------------3b-3b ------|

e|----------------------------------------------------------------------|
b|----------------------------------------------------------------------|
g|----------------------------------------------------------------------|
e|----------------------------------------------------------------------|
a|----------------------------------------------------------------------|
A chord diagramE MajorE|----0-----------2-----------3-----------------3b-3b --------------|


VERSE  **A bass is playing the main riff, but this is what the guitar is playing:
e|-------------------------------------------------------------------------------|
b|-------------------------------------------------------------------------1----|
g|------------0---------------0---------------0--------2--22-----2-----------|
e|--2-----4--------2-----4---------2-----4------------2--22-----2-----2----|
a|-------------------------------------------------------0--00-----0-----3----|
A chord diagramE MajorE|------------------------------------------------------------------------------|

e|--------------------------------------------------------------------------------|
b|--------------------------------------------------------------------------------|
g|------------0--------------0--------------0-------2---22----2---2----22----|
e|--2-----4--------2-----4-------2-----4-----------2---22----2---2----22----|
a|----------------------------------------------------0---00----0---0----00----|
A chord diagramE MajorE|--------------------------------------------------------------------------------|


CHORUS
Guitar 1:
e|----------------------------------------------------------------------|
b|----------------------------------------------------------------------|
g|----------------------------------------------------------------------|
e|----------------------------------------------------------------------|
a|----------------------------------------------------------------------|
A chord diagramE MajorE|---3b-3b--0-----------2-----------3-----------------3b-3b ------|
							   x2

e|----------------------------------------------------------------------|
b|----------------------------------------------------------------------|
g|----------------------------------------------------------------------|
e|----------------------------------------------------------------------|
a|----------------------------------------------------------------------|
A chord diagramE MajorE|----0-----------2-----------3-----------------3b-3b --------------|

Guitar 2 (playing in background):
e|-----3---------0---------2-----------------------0--------------------|
b|--------0---------0---------0--------5^3---0-------3----0----------|
g|------------0---------0----------0------------------------------------|
d|------------------------------------------------------------------------|
a|------------------------------------------------------------------------|
A chord diagramE MajorE|------------------------------------------------------------------------|


AFTER SECOND CHORUS
e|----------------------------------------------------------------------|
b|----------------------------------------------------------------------|
g|----------------------------------------------------------------------|
e|----------------------------------------------------------------------|
a|----------------------------------------------------------------------|
A chord diagramE MajorE|---3b3-0---2---3b3-0---2---3b3--0-0--2------------------------|



Tabbed by: turboHIM
Any corrections email me at: metalheadHIM@yahoo.com

Other versions of And Love Said No

And love said noChords

Almost there ...

Sign in to get your own page with links to favourite songs and more. You are just one click away...

Login with Facebook Login with Google