Log in

One click and you are in

Login with Facebook Login with Google

Why sign up and log in

Guitar Tabs Explorer
Hillsong bass tabs for Joy in the holy ghost

Bass tabs

---------------------------------|
---------------------------0-1-2-|
-3-0-1-2-3-0-1-2-3-0-1-2-3-------|

the last 3 notes above is actually played 1 octave higher in the song, but I didn't do
because it would be out of the video screen if I did so.

-----------------------------------|
-----------------------------------|
---------------------------5-4-3-2-|
-3-0-1-2-3-0-1-2-3-0-1-2-3---------|

the last 4 notes above is actually played 1 octave higher in the song, but I didn't do
because it would be out of the video screen if I did so.

Verse

---------------------------------|
-------------------2-5-2---------|
-----------2-3-5-3---------------|
-3-0-1-2-3---------------3-3-2-2-|

---------------------------------|
-------------------4-7-4---------|
-----------4-5-7-5-------5-3-2-0-|
-0-0-7-7-5-----------------------|

---------------------------------|
-------------------2-5-2---------|
-----------2-3-5-3---------------|
-3-0-1-2-3---------------3-3-2-2-|

---------------------------------|
---------------------------------|
-------------6-6-5---------0-1-2-|
-3-3-2-2-0-0-------0-1-2-3-------|


Chorus

---------------------------------|
---2-5-2-----------2-3-4-5-3-2---|
-3-------3-0-1-2-3-------------5-|
---------------------------------|

---------------------------------|
---------------------------------|
-----------2-3-5---2-3-5-5-----2-|
-3-0-1-2-3-------3---------3-5---|

---------------------------------|
---2-5-2-----------2-3-4-5-3-2---|
-3-------3-0-1-2-3-------------5-|
---------------------------------|

---------------|
---------------|
-------5-5-5-5-|

Almost there ...

Sign in to get your own page with links to favourite songs and more. You are just one click away...

Login with Facebook Login with Google