Log in

One click and you are in

Login with Facebook Login with Google

Why sign up and log in

Guitar Tabs Explorer
Lauryn Hill bass tabs for To zion

Bass tabs

Tuning: Standard (E A D G)


Bass comes in at 0:19
🎸🎸🎸🎸🎸🎸

Intro:
G|-------------------6-----4-|--------------------6-----4-|
D|------4----6---------------|------4----6----------------|
A|----------------4-----2----|-----------------4-----2----|
E|-0-0----2----4-------------|-0-0----2----4--------------|

G|-------------------6-----4-|--------------------6-----4-|
D|------4----6---------------|------4----6----------------|
A|----------------4-----2----|-----------------4-----2----|
E|-0-0----2----4-------------|-0-0----2----4--------------|


Verse 1:
Unsure of what the...
G|-------------------6-----4-|--------------------6-----4-|
D|------4----6---------------|------4----6----------------|
A|----------------4-----2----|-----------------4-----2----|
E|-0-0----2----4-------------|-0-0----2----4--------------|

But them an angel...
G|-------------------6-----4-|--------------------6-----4-|
D|------4----6---------------|------4----6----------------|
A|----------------4-----2----|-----------------4-----2----|
E|-0-0----2----4-------------|-0-0----2----4--------------|

Woe this crazy...
G|-------------------6-----4-|--------------------6-----4-|
D|------4----6---------------|------4----6----------------|
A|----------------4-----2----|-----------------4-----2----|
E|-0-0----2----4-------------|-0-0----2----4--------------|

Look at your career...
G|-------------------6-----4-|--------------------6-----4-|
D|------4----6---------------|------4----6----------------|
A|----------------4-----2----|-----------------4-----2----|
E|-0-0----2----4-------------|-0-0----2----4--------------|


Chorus:
Now the joy of my world...
G|---------------------------------------6------4---|
D|---2------4----------------6---------6------4-----|
A|--------4---4---4--------6---6-----4------2-------|
E|-0---0--------2----2---4-------4------------------|

G|---------------------------------------6------4---|
D|---2------4----------------6---------6------4-----|
A|--------4---4---4--------6---6-----4------2-------|
E|-0---0--------2----2---4-------4------------------|

G|---------------------------------------6------4---|
D|---2------4----------------6---------6------4-----|
A|--------4---4---4--------6---6-----4------2-------|
E|-0---0--------2----2---4-------4------------------|

G|---------------------------------------6------4---|
D|---2------4----------------6---------6------4-----|
A|--------4---4---4--------6---6-----4------2-------|
E|-0---0--------2----2---4-------4------------------|


Verse 2:
How beautiful if nothing...
G|-------------------6-----4-|--------------------6-----4-|
D|------4----6---------------|------4----6----------------|
A|----------------4-----2----|-----------------4-----2----|
E|-0-0----2----4-------------|-0-0----2----4--------------|

Now let me pray...
G|---------------------------------------6------4---|
D|---2------4----------------6---------6------4-----|
A|--------4---4---4--------6---6-----4------2-------|
E|-0---0--------2----2---4-------4------------------|

G|---------------------------------------6------4---|
D|---2------4----------------6---------6------4-----|
A|--------4---4---4--------6---6-----4------2-------|
E|-0---0--------2----2---4-------4------------------|


And I thank you...
G|---------------------------------------6------4---|
D|---2------4----------------6---------6------4-----|
A|--------4---4---4--------6---6-----4------2-------|
E|-0---0--------2----2---4-------4------------------|

G|---------------------------------------6------4---|
D|---2------4----------------6---------6------4-----|
A|--------4---4---4--------6---6-----4------2-------|
E|-0---0--------2----2---4-------4------------------|


See I know that...
G|---------------------------------------6------4---|
D|---2------4----------------6---------6------4-----|
A|--------4---4---4--------6---6-----4------2-------|
E|-0---0--------2----2---4-------4------------------|

G|---------------------------------------6------4---|
D|---2------4----------------6---------6------4-----|
A|--------4---4---4--------6---6-----4------2-------|
E|-0---0--------2----2---4-------4------------------|


Chorus:
That the joy of my world...
G|---------------------------------------6------4---|
D|---2------4----------------6---------6------4-----|
A|--------4---4---4--------6---6-----4------2-------|
E|-0---0--------2----2---4-------4------------------|

G|---------------------------------------6------4---|
D|---2------4----------------6---------6------4-----|
A|--------4---4---4--------6---6-----4------2-------|
E|-0---0--------2----2---4-------4------------------|

G|---------------------------------------6------4---|
D|---2------4----------------6---------6------4-----|
A|--------4---4---4--------6---6-----4------2-------|
E|-0---0--------2----2---4-------4------------------|

G|---------------------------------------6------4---|
D|---2------4----------------6---------6------4-----|
A|--------4---4---4--------6---6-----4------2-------|
E|-0---0--------2----2---4-------4------------------|

Now the joy of my world...
G|---------------------------------------6------4---|
D|---2------4----------------6---------6------4-----|
A|--------4---4---4--------6---6-----4------2-------|
E|-0---0--------2----2---4-------4------------------|

G|---------------------------------------6------4---|
D|---2------4----------------6---------6------4-----|
A|--------4---4---4--------6---6-----4------2-------|
E|-0---0--------2----2---4-------4------------------|

G|---------------------------------------6------4---|
D|---2------4----------------6---------6------4-----|
A|--------4---4---4--------6---6-----4------2-------|
E|-0---0--------2----2---4-------4------------------|

G|-------------------------------------|
D|---2------4----------------6---------|
A|--------4---4---4--------6---6-------|
E|-0---0--------2----2---4-------4-----|

Bass ends 3:14

Almost there ...

Sign in to get your own page with links to favourite songs and more. You are just one click away...

Login with Facebook Login with Google