Log in

One click and you are in

Login with Facebook Login with Google

Why sign up and log in

Guitar Tabs Explorer
Lauryn Hill bass tabs for Doo wop that thing

Bass tabs

----------------------------------------------------------------------------
          Doo Wop (That Thing) - Laurynn Hill
----------------------------------------------------------------------------
Tabbed by: Chris Raw
Tuning: Standard   BPM: 100


Intro
G|---------------- ---------------- ---------------- ----------------|
D|---------------- ---------------- ---------------- ----------------|
A|---------------- ---------------- ---------------- ----------------|
E|---------------- ---------------- ---------------- --------3-3-3-3-|

G|---------------- ---------------- ---------------- ----------------|
D|---------------- ---------------- ---------------- ----------------|
A|1-0------------- 1-0------------- 1-0------------- 1-0-------------|
E|------3-----3012 ------3-----3012 ------3-----3012 ------3---------|


Verse
G|------5--------- ---------------- ------5--------- --------------7-|
D|---------------- ---------------- ---------------- ---5---08--7----|
A|---7------------ ---5------------ ---7------------ -5--------------|
E|5--------------- 3--------------- 5--------------0 3-3-------------|

G|------5--------- ---------------- ------5--------- --------------7-|
D|---------------- -------------5-- ---------------- -5-5---08--7----|
A|---7------------ ---5------5----- ---7------------ ----------------|
E|5--------------- 3--------------- 5--------------x 3-3-------------|

G|------5--------- ---------------- ------5--------- --------------7-|
D|---------------- ---------------- ---------------- ---5---08--7----|
A|---7------------ ---5------------ ---7------------ -5--------------|
E|5--------------- 3--------------- 5--------------0 3-3-------------|

G|------5--------- ---------------- ------5--------- ----------------|
D|---------------- -------------5-- ---------------5 ---5------------|
A|---7------------ ---5------5----- ---7------------ --------------5-|
E|5--------------- 3--------------- 5--------------- 3-3-----6--5----|

G|---------------- ---------------- ---------------- --------------7-|
D|7\-----------7-0 5-3----------5-- 7------------7-- 5\------8--7----|
A|----------7----- ---5------5----- ----------7----- ----------------|
E|---------------- ----3----------- ---------------- ----------------|

G|------5--------- ---------------- ------5--------- ----------------|
D|---------------- -------------5-- ---------------5 ---5------------|
A|---7------------ ---5------5----- ---7------------ ----------------|
E|5--------------0 3--------------- 5--------------- 3-3-----3-3-3-3-|

G|---------------- ---------------- ---------------- ----------------|
D|---------------- ---------------- ---------------- ----------------|
A|1-0------------- 1-0------------- 1-0------------- 1-0-------------|
E|------3-----3012 ------3-----3012 ------3-----3012 ------3---------|


Chorus
G|------5--------- ---------------- ------5--------- --------------7-|
D|-------------7-- 5-3----------5-- -------------7-- -5-5---08--7----|
A|---7------7----- ---5------5----- ---7------7----- ----------------|
E|5--------------- ----3----------- 5--------------- 3-3-------------|

G|------5--------- ---------------- ------5--------- ----------------|
D|---------------- -------------5-- ---------------5 ---5------------|
A|---7------------ ---5------5----- ---7------------ --------------5-|
E|5--------------0 3--------------- 5--------------- 3-3-----6--5----|


Verse 2
G|------5--------- ---------------- ------5--------- --------------7-|
D|---------------- ---------------- ---------------- ---5---08--7----|
A|---7------------ ---5------------ ---7------------ -5--------------|
E|5--------------- 3--------------- 5--------------0 3-3-------------|

G|------5--------- ---------------- ------5--------- ----------------|
D|---------------- -------------5-- ---------------5 ---5------------|
A|---7------------ ---5------5----- ---7------------ --------------5-|
E|5--------------- 3--------------- 5--------------- 3-3-----6--5----|

G|---------------- ---------------- ---------------- --------------7-|
D|7\-----------7-0 5-3----------5-- 7------------7-- 5\------8--7----|
A|----------7----- ---5------5----- ----------7----- ----------------|
E|---------------- ----3----------- ---------------- ----------------|

G|------5--------- ---------------- ------5--------- ----------------|
D|---------------- -------------5-- ---------------5 ---5------------|
A|---7------------ ---5------5----- ---7------------ ----------------|
E|5--------------0 3--------------- 5--------------- 3-3-----3-3-3-3-|

G|---------------- ---------------- ---------------- ----------------|
D|---------------- ---------------- ---------------- ----------------|
A|1-0------------- 1-0------------- 1-0------------- 1-0-------------|
E|------3-----3012 ------3-----3012 ------3-----3012 ------3---------|

G|---------------- ---------------- ---------------- ----------------|
D|---------------- ---------------- ---------------- ----------------|
A|---------------- ---------------- ---------------- ----------------|
E|---------------- ---------------- ---------------- --------3-3-3-3-|

G|---------------- ---------------- ---------------- ----------------|
D|---------------- ---------------- ---------------- ----------------|
A|------7-------7- ------5-------5- ------7-------7- ------5-------5-|
E|5--8------578--- 3--6------356--- 5--8------578--- 3--6------356---|


Chorus
G|------5--------- ---------------- ------5--------- --------------7-|
D|-------------7-- 5-3----------5-- -------------7-- -5-5---08--7----|
A|---7------7----- ---5------5----- ---7------7----- ----------------|
E|5--------------- ----3----------- 5--------------- 3-3-------------|

G|------5--------- ---------------- ------5--------- ----------------|
D|---------------- -------------5-- ---------------5 ---5------------|
A|---7------------ ---5------5----- ---7------------ --------------5-|
E|5--------------0 3--------------- 5--------------- 3-3-----6--5----|


| / slide up
| \ slide down
| h hammer-on
| p pull-off
| ~ vibrato
| + harmonic

Almost there ...

Sign in to get your own page with links to favourite songs and more. You are just one click away...

Login with Facebook Login with Google