Log in

One click and you are in

Login with Facebook Login with Google

Why sign up and log in

Guitar Tabs Explorer
Lauryn Hill bass tabs for Cant take my eyes off you

Can't Take My Eyes Off You bass tab by Lauryn Hill

Lauryn Hill bass tabs for Cant take my eyes off you

Bass tabs

Key:\- slide

Note: This tab is written in phrases not measures, I have divided the tab up into the different phrases of
the song as this is the way I learn it.
If you need more direct timing of things feel free to message me and I will help if I can!
Intro: Rest for 4 measures of 4 Beats then
G|---------------|----------|----------|----------|
D|---------------|----------|----------|----------|
A|-7----7-7------|-7----7-7-|-7----7-7-|-7-7--7-7-|
E|---------------|----------|----------|----------|


Verse 1: ("You're just too good...")
G|----------|---------|----------|----------|----------|----------|---------|--------|
D|----------|---------|----------|----------|----------|----------|---------|--------|
A|-7-7------|-7-7-----|-7-7------|----------|----------|----------|---------|-9--7-7-|
E|----------|---------|----------|-5-5------|-5-5------|-4-4------|-2-2-----|--------|

G|----------|---------|----------|----------|----------|----------|---------|---------------|
D|----------|---------|----------|----------|----------|-9--------|---------|---------------|
A|-7-7------|-7-7-----|-7-7------|----------|----------|----------|---------|-9--7-7-----9-9|
E|----------|---------|----------|-2--5-5---|-5-5------|---4-4----|-2-2-----|---------7-----|


Chorus 1: Rest until:("Trust in me when I say ok...") or 7 measures of 4 beats

G|-------------|----------|---------------|----------|----------------|----------|------------|--------|
D|-11-9--------|----------|---------------|----------|----------------|----------|------------|--------|
A|------11-----|-9------9-|-------------9-|-7-----11-|-------------11-|--------9-|---------11-|-7------|
E|----------11-|----------|-7-----7-7-9---|----------|-9----9-9-11----|-5--------|-7----------|--------|


Verse 2: ("You're just too good...")
G|----------|---------|----------|----------|----------|----------|---------|--------|
D|----------|---------|----------|----------|----------|--------6-|---------|--------|
A|-7-7------|-7-7-----|-7-7------|----------|----------|----------|---------|-9--7-7-|
E|----------|---------|----------|-5-5------|-5-5------|-4-4------|-2-2-----|--------|

Rest


Verse 2: ("I need you...")
G|---------------|---------------|----------|----------------|----------|------------|--------|
D|-/11-----------|---------------|----------|----------------|----------|------------|--------|
A|-----9------12-|---------------|-7--------|----------------|----------|------------|-7------|
E|---------------|-7-------------|----------|-9--------------|-5--------|-7----------|--------|

G|---------------|---------------|----------|----------------|----------|------------|--------|
D|---------------|---------------|----------|----------------|----------|------------|--------|
A|-7--9----------|---------------|-7--------|----------------|----------|----------6-|-7------|
E|---------------|-7-------------|----------|-9--------------|-5------9-|-7----------|--------|

G|--------------|
D|--------------|
A|--7-9-/11-----|
E|--------------|

G|---------------|---------------|----------|----------------|----------|------------|---------------|
D|---------------|---------------|----------|----------------|----------|-9-7--------|---------------|
A|-9-------------|---------------|-7--------|-----------11-7-|----------|-----9-7----|-7-7-/9-9-/11--|
E|---------------|-7-------------|----------|-9--------------|-5--------|---------7--|---------------|

Almost there ...

Sign in to get your own page with links to favourite songs and more. You are just one click away...

Login with Facebook Login with Google