Log in

One click and you are in

Login with Facebook Login with Google

Why sign up and log in

Guitar Tabs Explorer
Highly Suspect guitar tabs for Not me

Guitar tabs with lyrics

Intro:
e|-\17----------------------------------------------------------|
B|--------------------------------15--15------------------------|
G|------------------12-14-12----15--15--14--17-14-17-14-12------|
D|-----12-12-14-14-15----------15-------------------------------|
A|--------------------------------------------------------------|
E|--------------------------------------------------------------|

e|--------------------------------------------------------------|
B|--------------------------------15--15-------15---------------|
G|------------------12-14-12----15--15--14--17----18-17-15------|
D|-----12-12-14-14-15----------15-------------------------------|
A|--------------------------------------------------------------|
E|--------------------------------------------------------------|

e|--------------------------------------------------------------|
B|--------------------------------15--15------------------------|
G|------------------12-14-12----15--15--14--17-14-17-14-12------|
D|-----12-12-14-14-15----------15-------------------------------|
A|--------------------------------------------------------------|
E|--------------------------------------------------------------|

e|--------------------------------------------------------------|
B|--------------------------------15--15------------------------|
G|------------------12-14-12----15--15--14--17-14-17-14~--------|
D|-----12-12-14-14-15----------15-------------------------------|
A|--------------------------------------------------------------|
E|--------------------------------------------------------------|

CHORDS (All barre chords):
(0:22)
A chord diagramF/CF/C  A chord diagramC/GC/G  Gm/D  Dm/A 2x:

**Strum on upstrokes**

Verse 1:
(0:31)
(BASS ONLY)

(0:50)
             A chord diagramF/CF/C        A chord diagramC/GC/G
There's some disguise I
                    Gm/D                    Dm/A
For the eyes of the unwise that don't realize
That they're being hypnotized
   A chord diagramF/CF/C        A chord diagramC/GC/G
And brutalized
                  Gm/D    Dm/A
For somebody else's pride
But it's not me


Chorus:
(0:59)
e|---------------------------------------------------|
B|---------------------------------------------------|
G|-15----------14--14---12---------14--14------------| 4x:
D|----17-12-12---15--15---14-12-12---15--15----------|
A|---------------------------------------------------|
E|---------------------------------------------------|

(1:18)
A chord diagramF/CF/C  A chord diagramC/GC/G  Gm/D  Dm/A 2x:

**Strum on upstrokes**


Verse 2:
(1:28)
(BASS ONLY)

(1:46)
              A chord diagramF/CF/C     A chord diagramC/GC/G
We're burning bridges
With poor decisions
       Gm/D     Dm/A
And no hint of shame
                A chord diagramF/CF/C      A chord diagramC/GC/G
And no hint of shame
Don't point your fingers
Get rid of your weapons
Gm/D              Dm/A
And get rid of that blame

Well  it's not me


Chorus:
(1:55)
e|---------------------------------------------------|
B|---------------------------------------------------|
G|-15----------14--14---12---------14--14------------| 4x:
D|----17-12-12---15--15---14-12-12---15--15----------|
A|---------------------------------------------------|
E|---------------------------------------------------|

CHECK IT!

The strumming pattern for the chords slightly changes here  but the chords are the same.
A chord diagramF/CF/C  A chord diagramC/GC/G  Gm/D  Dm/A 2x:


Verse 3:
(2:22)
A chord diagramF/CF/C         A chord diagramC/GC/G
Well if you're blind to the truth
Gm/D      Dm/A
Of a broken promise
A chord diagramF/CF/C                   A chord diagramC/GC/G
Well then you have critically missed
Gm/D          Dm/A
Our forefathers' wish
  F/C*    C/G*  Gm/D*   Dm/A*
So I will ask you this:
   F/C* C/G*  Gm/D* Dm/A*
Who's the real terrorist?

'Cuz it's not me


Chorus:
(2:41)
e|---------------------------------------------------|
B|---------------------------------------------------|
G|-15----------14--14---12---------14--14------------| 3x:
D|----17-12-12---15--15---14-12-12---15--15----------|
A|---------------------------------------------------|
E|---------------------------------------------------|


Solo:
(3:02)
A chord diagramF/CF/C  A chord diagramC/GC/G  Gm/D  Dm/A 4x:


Outro:
(3:18)
e|-\17----------------------------------------------------------|
B|--------------------------------15--15------------------------|
G|------------------12-14-12----15--15--14--17-14-17-14-12------|
D|-----12-12-14-14-15----------15-------------------------------|
A|--------------------------------------------------------------|
E|--------------------------------------------------------------|

e|--------------------------------------------------------------|
B|--------------------------------15--15-------15---------------|
G|------------------12-14-12----15--15--14--17----18-17-15------|
D|-----12-12-14-14-15----------15-------------------------------|
A|--------------------------------------------------------------|
E|--------------------------------------------------------------|

e|--------------------------------------------------------------|
B|--------------------------------15--15------------------------|
G|------------------12-14-12----15--15--14--17-14-17-14-12------|
D|-----12-12-14-14-15----------15-------------------------------|
A|--------------------------------------------------------------|
E|--------------------------------------------------------------|

e|--------------------------------------------------------------|
B|--------------------------------15--15------------------------|
G|------------------12-14-12----15--15--14--17-14-17-14~--------|
D|-----12-12-14-14-15----------15-------------------------------|
A|--------------------------------------------------------------|
E|--------------------------------------------------------------|

↓ Add and view comments below ↓

What do you think about this song and these tabs?

Add your comments, questions, rant or a thumbs up below.

Almost there ...

Sign in to get your own page with links to favourite songs and more. You are just one click away...

Login with Facebook Login with Google