Log in

One click and you are in

Login with Facebook Login with Google

Why sign up and log in

Guitar Tabs Explorer
Highly Suspect bass tabs for Fuck me up

Bass tabs

Intro: 0:17
G|---------------------------------------------------------------------------|
D|--2--4--2------------------------------------------------------------------|
A|-----------4-----2--4--2---------------------------------------------------|
E|--------------5-----------5--2---------------------------------------------|
Verse: 0:19
G|---------------------------------------------------------------------------|
D|------------------------------------listen to the song for proper rhythm:-|
A|---------------------------------------------------------------------------|
E|--2--2-2--/5--5-5--8-8--7-7----5--5-5--4-4--3-3--2-------------------------|


Pre-Chorus: 0:24
G|---------------------------------------------------------------------------|
D|------------you can slightly bend the 10's if you think it sounds better:-|
A|---------------------------------------------------------------------------|
E|--2--2-2--/5--5-5--8-8--7-7--10-10-10-10-10-10-10-10-10-10-10-10--10-------|


Chorus: 0:30
G|---------------------------------------------------------------------------|
D|---------------------------------------------------------------------------|
A|---------------------------------------------------------------------------|
E|--2--0-2-2--0-2-2--0-2-2--2-2--5-5-5-5-4-4-3-3--2--------------------------| x2


Verse: without bass x2 0:44

0:54
G|---------------------------------------------------------------------------|
D|--4--4--4--4--4--4--4--4--2--4--2------------------------------------------|
A|-----------------------------------4-----2--4--2---------------------------|
E|--------------------------------------5-----------5--2---------------------|

Verse: 0:56
G|---------------------------------------------------------------------------|
D|---------------------------------------------------------------------------|
A|---------------------------------------------------------------------------|
E|--2--2-2--/5--5-5--8-8--7-7----5--5-5--4-4--3-3--2-------------------------|


Pre-Chorus: 1:02
G|---------------------------------------------------------------------------|
D|---------------------------------------------------------------------------|
A|---------------------------------------------------------------------------|
E|--2--2-2--/5--5-5--8-8--7-7--10-10-10-10-10-10-10-10-10-10-10-10--10-------|


Chorus: 1:07
G|---------------------------------------------------------------------------|
D|---------------------------------------------------------------------------|
A|---------------------------------------------------------------------------|
E|--2--0-2-2--0-2-2--0-2-2--2-2--5-5-5-5-4-4-3-3--2---------------------------| x4


Solo: 1:30
G|---------------------------------------------------------------------------|
D|--------------------------------------------------4~-----------------------|
A|---------------------------------------------------------------------------|
E|-----------------------2---------------------------------------------------|


Verse: 1:42
G|---------------------------------------------------------------------------|
D|---------------------------------------------------------------------------|
A|---------------------------------------------------------------------------|
E|--2--2-2--/5--5-5--8-8--7-7----5--5-5--4-4--3-3--2-------------------------| x3


Pre-Chorus: 1:59
G|---------------------------------------------------------------------------|
D|---------------------------------------------------------------------------|
A|---------------------------------------------------------------------------|
E|--2--2-2--/5--5-5--8-8--7-7--10-10-10-10-10-10-10-10-10-10-10-10--10-------|


Outro: 2:05
G|---------------------------------------------------------------------------|
D|---------------------------------------------------------------------------|
A|---------------------------------------------------------------------------|
E|--2--0-2-2--0-2-2--0-2-2--0-2-2--0-2-2--0-2-2--0-2-2-----------------------| x2

G|----------------------------------------6--4-----4h6-----------------------|
D|--4--2-4-4--2-4-4--2-4-4--2-4-4--2-4-4--------7-------7/4------------------|
A|---------------------------------------------------------------------------|
E|---------------------------------------------------------------------------|

G|---------------------------------------------------------------------------|
D|---------------------------------------------------------------------------|
A|---------------------------------------------------------------------------|
E|--2--0-2-2--0-2-2--0-2-2--2-2--5-5-5-5-4-4-3-3-----------------------------|


************************************

| h  Hammer-on
| /  Slide up
| ~  Vibrato

Almost there ...

Sign in to get your own page with links to favourite songs and more. You are just one click away...

Login with Facebook Login with Google