Log in

One click and you are in

Login with Facebook Login with Google

Why sign up and log in

Guitar Tabs Explorer
High And Mighty Color tabs for Good bye

Guitar tabs

MAIN RIFF
e--------------------------------------------------------------------|
B--------------------------------------------------------------------|
G--------------------------------------------------------------------|
D--3--0--5--0--7--0-----3--0--5--0--7--0-----3--0--5--0--7--0--------|
A--3--0--5--0--7--0-----3--0--5--0--7--0-----3--0--5--0--7--0--------|
D--3--0--5--0--7--0-----3--0--5--0--7--0-----3--0--5--0--7--0--------|

ENDINGS

e----------------------------------------------------------|
B----------------------------------------------------------|
G---------------------------3-3-3--5-5-5-------------------|
D--3-3-3--5-5-5-------------x-x-x--x-x-x-------------------|
A--3-3-3--5-5-5-------------1-1-1--3-3-3-------------------|
D--3-3-3--5-5-5--------------------------------------------|
                1st time                  2nd time

VERSE
e-----------------------------------------------------------------------|
B-----------------------------------------------------------------------|
G-----------------------------------------------------------------------|
D---------0---------/------3-0-0-0-0-0-0--3-------5-5-5--3-3-3----------|
A---------0---------/------3-0-0-0-0-0-0--3-------5-5-5--3-3-3----------|
D---0-0---0---------/------3-0-0-0-0-0-0--3-------5-5-5--3-3-3----------|
  P.M----    x2   Pick Scrape              x3                 ending 1--|

e----------------------------------------------------------|
B----------------------------------------------------------|
G---3-3-3--5-5-5-------------------------------------------|
D---x-x-x--x-x-x-------------------------------------------|
A---1-1-1--3-3-3-------------------------------------------|
D----------------------------------------------------------|
             ending 2


CHORUS  - Strum in Rhythm
e------------------------------------------------------------------|
B------------------------------------------------------------------|
G---5-----4-------------------------------5----4----3-----5--------|
D---3-----2----0-----3-----5-----7--------3----2----3-----5--------|
A---3-----2----0-0-0-3-0-0-5-0-0-7-0-0----3----2----1-----3--------|
D---3-----2----0-0-0-3-0-0-5-0-0-7-0-0----3----2-------------------|
 P.M--------                           P.M-------------------------|


CHORUS (Part 2 "please tell me now ...") Strum in Rhythm again

e----------------------------------------------------------|
B----------------------------------------------------------|
G--5--5--5------7-----3-------5----------------------------|
D--5--5--5------7-----3---3---5----------------------------|
A--3--3--3------5-----1---3---3----------------------------|
D-------------------------3--------------------------------|

POST CHORUS

e---------------------------------------------------------------|
B---------------------------------------------------------------|
G----------3----------------5-----------------------------------|
D----------3----------------5-----------------------------------|
A----------1----------------3-----------------------------------|
D--0-0-0-0---------0-0-0-0--------------------------------------|
 P.M------     P.M----------------------------------------------|


That's about it. I haven't tabbed the whole solo, but here's what I did get for anyone
interested.
(I normally improvise it and use these parts to give it structure)


SOLO - Guitar 1

e------------------------------------------------------------|
B------------------------------------------------------------|
G---12b---12-12--10----10------------------------------------|
D-------------------12---------------------------------------|
A------------------------------------------------------------|
D------------------------------------------------------------|


e-------15--------------------------------------------------|
B---15b----15b-13-15-15b-p-13-------------------------------|
G------------------------------14---------------------------|
D-----------------------------------------------------------|
A-----------------------------------------------------------|

Almost there ...

Sign in to get your own page with links to favourite songs and more. You are just one click away...

Login with Facebook Login with Google