Log in

One click and you are in

Login with Facebook Login with Google

Why sign up and log in

Guitar Tabs Explorer
Hiatus Kaiyote guitar tabs for Borderline with my atoms

Intro

Intro:

e|---------------------------3-----------------------------------------------|
B|---13-----6-----4-----1----1-----------------------------------------------|
G|---12-----5-----3-----1----1-----------------------------------------------|
D|---12-----5-----3-----1----------------------------------------------------|
A|---------------------------------------------------------------------------|
E|---11-----4-----2-----1--------------------1---1---1-/-11------------------|

e|---------------------------3-----------------------------------------------|
B|---13-----6-----4-----1----1-----------------------------------------------|
G|---12-----5-----3-----1----1-----------------------------------------------|
D|---12-----5-----3-----1----------------------------------------------------|
A|---------------------------------------------------------------------------|
E|---11-----4-----2-----1--------------------1---1---1-/-11------------------|

e|-----------------------------------------------|
B|---13-----6-----4-----1----1-------------------|
G|---12-----5-----3-----1----1-------------------|
D|---12-----5-----3-----1----1-------------------|
A|-----------------------------------------------|
E|---11-----4-----2-----1------------------------|

e|------------------------------8----------------|
B|---1--3--4--3-----3-----8-----8-----1/3-1------|
G|---1--3--3--3-----3-----8-----7-----1/3-1------|
D|---1--3--3--3-----3-----8-----------1/3-1------|
A|------------------------------6----------------|
E|---1--3-----4-----------8-----------1/3-1------|


************************************

| /  Slide up

Other versions of Borderline With My Atoms

Borderline with my atomsChords

Almost there ...

Sign in to get your own page with links to favourite songs and more. You are just one click away...

Login with Facebook Login with Google