Log in

One click and you are in

Login with Facebook Login with Google

Why sign up and log in

Guitar Tabs Explorer
John Hiatt tabs for Have a little faith

Guitar tabs with lyrics

The changing chord shapes and progessions in this song really make you
understand why it should be played on the piano rather than the guitar,

This should sound like something vaguely resembling what's on the CD.

Note that the lyrics are not properly lined up in synch with the tab,
and I suspect that the timing on "0 24 5 7" and "0 242 6" is a little
off.  So, don't take it too literally or you'll end up looking like
a musician in a Japanese Godzilla movie.

For further assistance, buy the CD, and listen to the song.  All will
be clear, and you'll get 9 other really good songs as a bonus.
"Have a Little Faith in Me", by John Hiatt, from the album "Bring the
Family".


Capo on first fret to be in tune with the recorded version.

  A chord diagramE MajorE
|-0---0---0---0---0---0---0---0---|-0---0---0---0---0---0---0---0---
|-0---0---0---0---0---0---0---0---|-0---0---0---0---0---0---0---0---
|---------------------------------|---------------------------------
|---------------------------------|---------------------------------
|---------------------------------|---------------------------------
|12-----------9-------------------|-5-----------0-------------------


|-0---0---0---0---0---0---0---0---|-0---0---0---0---0---0---0---0---
|-0---0---0---0---0---0---0---0---|-0---0---0---0---0---0---0---0---
|---------------------------------|---------------------------------
|---------------------------------|---------------------------------
|---------------------------------|---------------------------------
|12-----------9-------------------|-5-----------0-------------------

|-0---0---0---0---0---0---0---0---|-0---0---0---0---0---0---0---0---
|-0---0---0---0---0---0---0---0---|-0---0---0---0---0---0---0---0---
|---------------------------------|---------------------------------
|---------------------------------|---------------------------------
|---------------------------------|---------------------------------
|12-----------9-------------------|-5-----------0-------------------

         When the road ....

|-0---0---0---0---0---0---0---0---|-0---0---0---0---0---0---0---0---
|-0---0---0---0---0---0---0---0---|-0---0---0---0---0---0---0---0---
|---------------------------------|---------------------------------
|---------------------------------|---------------------------------
|---------------------------------|---------------------------------
|12-----------9-------------------|-5-----------0-------------------

         And you can no longer ....


Chorus:

  A chord diagramE MajorE               A chord diagramBB                 A chord diagramC# minorC#m             A chord diagramE MajorE
|-7-------7-------7-------7-------|-4-------4-------4-------4-------
|-9-------9-------7-------7-------|-5-------5-------5-------5-------
|-9-------9-------8-------8-------|-6-------6-------4-------4-------
|-9-------9-------9-------9-------|-6-------6-------6-------6-------
|-7-------7-------9-------9-------|-4-------4-------7-------7-------
|---------------------------------|---------------------------------

  faith in me

  A chord diagramA augmentedA               A chord diagramBB
|-0-------0-------2-------2-------|---------------------------------
|-2-------2-------4-------4-------|---------------------------------
|-2-------2-------4-------4-------|---------------------------------
|-2-------2-------4-------4-------|---------------------------------
|-0-------0-------2-------2-------|-2-------------------------------
|---------------------------------|-----0-----2-4---5-------7-------

Have a little ...

Have a little faith ...


  A chord diagramE MajorE
|-0---0---0---0---0---0---0---0---|-0---0---0---0---0---0---0---0---
|-0---0---0---0---0---0---0---0---|-0---0---0---0---0---0---0---0---
|---------------------------------|---------------------------------
|---------------------------------|---------------------------------
|---------------------------------|---------------------------------
|12-----------9-------------------|-5-----------0-------------------

When your secret ...

And when your back's ....

Repeat chorus, except on the last line:

|-0-------0-------2-------2-------|---------------------------------
|-2-------2-------4-------4-------|---------------------------------
|-2-------2-------4-------4-------|---------------------------------
|-2-------2-------4-------4-------|---------------------------------
|-0-------0-------2-------2-------|-2-------------------------------
|---------------------------------|-----0-----2-4---2------6--------


  A chord diagramBB               A chord diagramF#F#                A chord diagramAbmAbm             A chord diagramBB
|-7-------7-------6-------6-------|-4-------4-------2------2--------
|-7-------7-------7-------7-------|-4-------4-------4------4--------
|-8-------8-------6-------6-------|-4-------4-------4------4--------
|-9-------9-------8-------8-------|-6-------6-------4------4--------
|-9-------9-------9-------9-------|-6-------6-------2------2--------
|-7-------7-------6-------6-------|-4-------4-----------------------

              Well I been loving you such a long ....

  A chord diagramE MajorE               A chord diagramF#F#
|-0-------0-------2-------2-------|---------------------------------
|-0-------0-------2-------2-------|---------------------------------
|-1-------1-------3-------3-------|---------------------------------
|-2-------2-------4-------4-------|---------------------------------
|-2-------2-------4-------4-------|-----2-----4-6---7------9--------
|-0-------0-------2-------2-------|---------------------------------

  return, Just for you to ...


  You see time, time is our friend, 'Cause ....

Jeremy Crowhurst
rulegal@direct.ca

Almost there ...

Sign in to get your own page with links to favourite songs and more. You are just one click away...

Login with Facebook Login with Google