Log in

One click and you are in

Login with Facebook Login with Google

Why sign up and log in

Guitar Tabs Explorer
Heroes Del Silencio tabs for La herida

Guitar tabs with lyrics

Album:		El Espiritu del Vino
transcribed by:	Christoph Scherer (christoph.scherer@hmrag.com)

This is the nice acoustic part played during the intro and other parts of
the song, at least my version of it, but it should be quite correct.

                                            1st+2nd time
||--0--0--------0h1p0-----1--------------|---3--3--------------------------
||--1-----1------------3-----3p1--0------|---3-----3-----3h5h3-----3-------
||--2--------2-----------------------0---|---0--------0---------5-----5p4--
||--2------------------------------------|---0-----------------------------
||--0------------------------------------|---2-----------------------------
||---------------------------------------|---3-----------------------------

---------|--1--1-----------3-----1-----0-------|--0--0---------------------
---------|--3-----3-----3-----3-----3----------|--1--1--0--0h1p0-----0-----
-----0h2-|--2--------2--------------------0h2--|--2--2------------2--------
---------|--0----------------------------------|--2--2---------------------
---------|-------------------------------------|--0--0---------------------
---------|-------------------------------------|---------------------------


              3rd time
----------||---3--3--------------------------------|--1--1-----------------
----------||---3-----3--------3-----3-----3--1--0--|--1--1--1--0h1---------
0h2p0-----||---0--------0--0-----0-----0-----------|--2--2----------2------
------2p0-||---0-----------------------------------|--3--3-----------------
----------||---2-----------------------------------|-----------------------
----------||---3-----------------------------------|-----------------------


---------------|--0--0----------------------------||-----------------------
---1h3p1--0----|--1--1--0--0h1p0-----0------------||-----------------------
------------0--|--2--2------------2-----0h2p0-----||-----------------------
3--------------|--2--2------------------------2p0-||-----------------------
---------------|--0--0----------------------------||-----------------------
---------------|----------------------------------||-----------------------



song name: La herida
artist's name: Heroes del Silencio
transcribed by: Pedro del Rio (prio@mvax.fmed.uam.es)
name of the album: El espiritu del vino
authors: Joaquin Cardiel, Juan Valdivia, Enrique Bumbury and Pedro Andreu
edited by: el estanque/ ego musical
produced by: emi-odeon s.a.
directed by: Phil Manzanera
recorded at: gallery studio (surrey chertsey)
mixed at: metropolis (London)


intro: A chord diagramA minorAm   A chord diagramDm7Dm7   A chord diagramG+G   A chord diagramFF   F7/9+   A chord diagramA minorAm   A chord diagramA11A11   A chord diagramA minorAm (slightly and with love)

<C>siempre es la <Em>misma funcion, ...


Enjoy and feel it as you can; it's like real life!

Almost there ...

Sign in to get your own page with links to favourite songs and more. You are just one click away...

Login with Facebook Login with Google