Log in

One click and you are in

Login with Facebook Login with Google

Why sign up and log in

Guitar Tabs Explorer
Hermans Hermits tabs for I am henry viii

Guitar tabs

This is all my own work-I am Henry VIII (By Herman's
Hermits)-
The guitar is clean sounding, and the solo goes like
this-

E--------------------7--------------------------------------
B--7--7-7-5---------7--5-5-----5-7-8-7-5-----5---7---
G--7------------7---------------7---------------7-----7---
D-----------------------------------------------------------
A-----------------------------------------------------------
E-----------------------------------------------------------

E-------------------------------------------
B-----------5--7--7^×7/8/7---5-----5---
G--5---7--------------------------7-------
D-------------------------------------------
A-------------------------------------------
E-------------------------------------------

E--7--7--7--7--8--7-------------5/8^×8--5--
B--7--7--7--7--8--7--7--5------5/8----------
G------------------------------7-----------------
D------------------------------------------------
A------------------------------------------------
E------------------------------------------------

E---5/7---8-7-8--5-7-9-5-7-4-5-----------9-9-9--7-7-5
B---5/7-------------------------------7--5---7-7-7--7-7-5
G-------------------------------------------------------------
D-------------------------------------------------------------
A--------------------------------------------------------------

E--------------------------------------------------------------


Tabbed By Daniel Messeca

Almost there ...

Sign in to get your own page with links to favourite songs and more. You are just one click away...

Login with Facebook Login with Google