Log in

One click and you are in

Login with Facebook Login with Google

Why sign up and log in

Guitar Tabs Explorer
Here I Come Falling bass tabs for A ghost town for a graveyard

A Ghost Town For A Graveyard bass tab - Here I Come Falling

Here I Come Falling bass tabs for A ghost town for a graveyard

Bass tabs with lyrics

++++++++++++++++++++++++++++++++++++++++++++++++++
|Here I Come Falling-A Ghost Town For A Graveyard|
++++++++++++++++++++++++++++++++++++++++++++++++++


Tuning: Drop D (DADG)

G|---------------|---------------|--------------------------|
D|---------------|---------------|--------------------------|
A|---------------|---------------|--------------------------|
D|-00-1010101010-|-00-1010101010-|-8-8-8-8-8-8-8-8-8-8-8--2-|

|--------------|--------------|--------------------------|
|--------------|--------------|--------------------------|
|--------------|--------------|--------------------------|
|-0-1010101010-|-0-1010101010-|-8-8-8-8-8-8-8-8-8-8-8--2-|

|--------------|--------------|--------------------------|
|--------------|--------------|--------------------------|
|--------------|--------------|--------------------------|
|-0-1010101010-|-0-1010101010-|-8-8-8-8-8-8-8-8-8-8-8--2-|

|--------------|--------------|--------------------------|
|--------------|--------------|--------------------------|
|--------------|--------------|--------------------------|
|-0-1010101010-|-0-1010101010-|-8-8-8-8-8-8-8-8-8-8-8--2-|

|----------------------------------------------|
|-----7-88------7-88------7-88-----------------|
|------------------------------7-8-8-8-8-8-8-8-|
|-0-0-------0-0-------0-0----------------------|

|----------------------------------------------|
|-----7-88------7-88------7-88-----------------|
|------------------------------7-8-8-8-8-8-8-8-|
|-0-0-------0-0-------0-0----------------------|

At the end of the little guitar part
|----------------|
|----------------|
|----------------|
|------------\12-|

|----------------------------------------------------------|
|----------------------------------------------------------|
|----------------------------------------------------------|
|-0---0-0-0-0-0----0-0-0-0-0-0----0-0-0-0-0----0-0-0-0-0-0-|

|---------------------------------------|
|---------------------------------------|
|---------------------------------------|
|-00000~~~~00000~~\12-00000~~~~00000~~~~|

|-----------------|-------------------------------|---------------|
|-----------------|-------------------------------|---------------|
|-----------------|-------------------------------|---------------|
|-8-8-8-8-8-8-8-8-|-10-1010-10-10-10-10-10-101010-|-2-0----2-0----|

|-----------------|-------------------------------|---------------|
|-----------------|-------------------------------|---------------|
|-----------------|-------------------------------|---------------|
|-8-8-8-8-8-8-8-8-|-10-1010-10-10-10-10-10-101010-|-2-0----2-0----|

Bridge
|----------------------|
|----------------------|
|----------------------|
|-\12-0~~~~~~~~~~~~~~~~|

|----------|----------|----------|----------|
|----------|----------|----------|----------|
|----------|----------|----------|----------|
|-0~-------|-8~-------|-5~-------|-7~-------|

|----------|----------|----------|----------|
|----------|----------|----------|----------|
|----------|----------|----------|----------|
|-0~-------|-8~-------|-5~-------|-7~-------|

|---------------------------------------|
|---------------------------------------|
|---------------------------------------|
|-0~-------8~---12-10-5~-------7~-------|

|---------------------------------------|
|---------------------------------------|
|---------------------------------------|
|-0~-------8~---12-10-5~-------7~-------|

|----------|-----------|----------|----------|
|----------|-----------|----------|----------|
|----------|-----------|----------|----------|
|-0~-------|-10~-------|-0~-------|-8~-------|


Chorus
|---------------------------------|
|---------------------------------|
|---------------------------------|
|-0-0-0-0-0-0-0-0-0-0-0-0-0-0-0-0-|

|-------------------------------------------------|
|-------------------------------------------------|
|-------------------------------------------------|
|-10-10-10-10-10-10-10-10-10-10-10-10-10-10-10-10-|

|-----------------------------------------------------------------|
|-----------------------------------------------------------------|
|-----------------------------------------------------------------|
|-8-8-8-8-8-8-8-8-8-8-8-8-8-8-8-8-8-8-8-8-8-8-8-8-8-8-8-8-8-8-8-8-|

|---------------------------------|
|---------------------------------|
|---------------------------------|
|-0-0-0-0-0-0-0-0-0-0-0-0-0-0-0-0-|

|-------------------------------------------------|
|-------------------------------------------------|
|-------------------------------------------------|
|-10-10-10-10-10-10-10-10-10-10-10-10-10-10-10-10-|

|-----------------------------------------------------------------|
|-----------------------------------------------------------------|
|-----------------------------------------------------------------|
|-8-8-8-8-8-8-8-8-8-8-8-8-8-8-8-8-8-8-8-8-8-8-8-8-8-8-8-8-8-8-8-8-|

|---------------------------------------------|
|---------------------------------------------|
|---------------------------------------------|
|-00000~00000~00000~00000~00000~00000~/777777-|

|------------------------------------------------------------|
|------------------------------------------------------------|
|------------------------------------------------------------|
|-00000~00000~00000~00000~00000~00000~11-9-7--5-3-2-0~-------|

Lyrics:Here I Come Falling-A Ghost Town For A Graveyard

The air's to cold to breathe tonight,
so let's just run away,
we'll tie our lungs together,
and hold our breath forever,

the witness has no eyes,
and you're to blind to see,
we'll never need to fly again,
so preacher clip these wings,
surrender, we're on the run, surrender,

speak up darling,
I can't hear you scream.
it seem you've lost your melody,

stop the pilot,
this ship is going down,
and yet you don't hear a word,

this symphony, won't last too long,
before the sky falls down,
there's a ghost town for a graveyard,
where we will never be found,

the world will stop,
the sun won't shine,
and the stars will scorch the sky,
the dead will rise,
and rain will fall,
as heaven begins to cry,

preacher clip these wings,
preacher clip these wings.

++++++++++++
|Enjoy-----|
++++++++++++
Please Comment and Rate!!!!!!

Almost there ...

Sign in to get your own page with links to favourite songs and more. You are just one click away...

Login with Facebook Login with Google