Log in

One click and you are in

Login with Facebook Login with Google

Why sign up and log in

Guitar Tabs Explorer
Hancock Herbie bass tabs for Rockit

Bass tabs with lyrics

Standard tuning (EADG)


NOTE: This tab represents the more well-known music video version
of the song rather than the original album version, which runs a
couple minutes longer and is a bit more repetitive.

🏷Legend:
r = rest
/ = slide up

INTRO/SECTION 1:

       (Rest x8)
G |---------------------------------|
D |---------------------------------|
A |---------------------------------|
E |-r-------------------------------|
  1  &  2  &  3  &  4  &


SECTION 2:

G |---------------------------------|---------------------------------|
D |---------------2-r---0-0-r-------|---------------------------------|
A |-0-r---0-3-0-3-----2-------0-3-3-|-0-r-----------0-r---------------|
E |---------------------------------|---------3-3-3-----0-r-0-1-1-2-/-|
  1  &  2  &  3  &  4  &   1  &  2  &  3  &  4  &

G |---------------------------------|---------------------------------|---------------------------------|
D |---------------2-r---0-0-r-------|---------------------------------|---------------------------------|
A |-0---r-0-3-0-3-----2-------0-3-3-|-0-r-----------0-r---------------|---------------------------------|
E |---------------------------------|---------3-3-3-----0-0-0-1---/---|-r-------------------------------|
  1  &  2  &  3  &  4  &   1  &  2  &  3  &  4  &   1  &  2  &  3  &  4  &

SECTION 3:

G |---------------------------------|---------------------------------|
D |---------------2-r---0-0-r-------|---------------------------------|
A |-0---r-0-3-0-3-----2-------0-3-3-|-0-r-----------0-r---------------|
E |---------------------------------|---------3-3-3-------------------|
  1  &  2  &  3  &  4  &   1  &  2  &  3  &  4  &

G |---------------------------------|---------------------------------|
D |---------------2-r---0-0-r-------|---------------------------------|
A |-0-r---0-3-r-3-------------0-3-3-|-0-r-----------0-r---------------|
E |---------------------------------|---------3-3-3-----0-0-0-1---2-2-|
  1  &  2  &  3  &  4  &   1  &  2  &  3  &  4  &

G |---------------------------------|---------------------------------|
D |---------------2-r---0-0-r-------|---------------------------------|
A |-0-r---0-3-0-3-----2-------0-3-3-|-0-r-----------0-r---------------|
E |---------------------------------|---------3-3-3-----------1---/---|
  1  &  2  &  3  &  4  &   1  &  2  &  3  &  4  &

G |---------------------------------|---------------------------------|---------------------------------|
D |---------------2-r---0-0-r-------|---------------------------------|---------------------------------|
A |-0-r---0-3-0-3-----2-------0-3-3-|-0-r-----------0-r---------------|---------------------------------|
E |---------------------------------|---------3-3-3-----0-0-0-1-1-2-2-|-r-------------------------------|
  1  &  2  &  3  &  4  &   1  &  2  &  3  &  4  &   1  &  2  &  3  &  4  &


SECTION 4:
       (Rest x16)
G |---------------------------------|
D |---------------------------------|
A |---------------------------------|
E |-r-------------------------------|
  1  &  2  &  3  &  4  &


SECTION 5:
       (Rest x4)
G |---------------------------------|
D |---------------------------------|
A |---------------------------------|
E |-r-------------------------------|
  1  &  2  &  3  &  4  &


SECTION 6:

G |---------------------------------|---------------------------------|
D |---------------2-r---0-0-r-------|---------------------------------|
A |-0-r---0-3-0-3-----2-------0-3-3-|-0-r-----------0-r---------------|
E |---------------------------------|---------3-3-3-------------------|
  1  &  2  &  3  &  4  &   1  &  2  &  3  &  4  &

G |---------------------------------|---------------------------------|
D |---------------2-r---0-0-r-------|---------------------------------|
A |-0-r---0-3-0-3-----2-------0-3-3-|-0-r-----------0-r---------------|
E |---------------------------------|---------3-3-3-----0-0-0-1-1-2-/-|
  1  &  2  &  3  &  4  &   1  &  2  &  3  &  4  &

G |---------------------------------|---------------------------------|
D |---------------2-r---0-0-r-------|---------------------------------|
A |-0-r---0-3-0-3-----2-------0-3-3-|-0-r-----------0-r---------------|
E |---------------------------------|---------3-3-3-------------------|

G |---------------------------------|---------------------------------|---------------------------------|
D |---------------2-r---0-0-r-------|---------------------------------|---------------------------------|
A |-0-r---0-3-0-3-----2-------0-3-3-|-0-r-----------0-r---------------|---------------------------------|
E |---------------------------------|---------3-3-3-----0-0---1---2-/-|-r-------------------------------|
  1  &  2  &  3  &  4  &   1  &  2  &  3  &  4  &   1  &  2  &  3  &  4  &


SECTION 7:
       (Rest x8)
G |---------------------------------|
D |---------------------------------|
A |---------------------------------|
E |-r-------------------------------|
  1  &  2  &  3  &  4  &


SECTION 8:
       (Rest x15)
G |---------------------------------|
D |---------------------------------|
A |---------------------------------|
E |-r-------------------------------|
  1  &  2  &  3  &  4  &


SECTION 9:
       (Rest x8)
G |---------------------------------|
D |---------------------------------|
A |---------------------------------|
E |-r-------------------------------|
  1  &  2  &  3  &  4  &


OUTRO:

G |---------------------------------|---------------------------------|
D |---------------------------------|---------------------------------|
A |---------------------------------|---------------------------------|
E |-5---3---5-5-3-5-r-5-3---5-5-3---|-5---3---5-5-3-5-r-5-3---5-5-3---|
  1  &  2  &  3  &  4  &   1  &  2  &  3  &  4  &

G |---------------------------------|---------------------------------|
D |---------------------------------|---------------------------------|
A |---------------------------------|---------------------------------|
E |-5---3---5-5-3-5-r-5-3---5-5-3---|-5---3---5-5-3-5-r-5-0---2---3-/-|
  1  &  2  &  3  &  4  &   1  &  2  &  3  &  4  &

G |---------------------------------|---------------------------------|
D |---------------------------------|---------------------------------|
A |---------------------------------|---------------------------------|
E |-5---3---5-5-3-5-r-5-3---5-5-3---|-5---3---5-5-3-5-r-5-3---5-5-3---|
  1  &  2  &  3  &  4  &   1  &  2  &  3  &  4  &
                                          (Rest x2)
G |---------------------------------|---------------------------------||---------------------------------|
D |---------------------------------|---------------------------------||---------------------------------|
A |---------------------------------|---------------------------------||---------------------------------|
E |-5---3---5-5-3-5-r-5-3---5-5-3---|-5---3---5-5-r-0---0-2---2---3-/-||-r-------------------------------|
  1  &  2  &  3  &  4  &   1  &  2  &  3  &  4  &   1  &  2  &  3  &  4  &

Almost there ...

Sign in to get your own page with links to favourite songs and more. You are just one click away...

Login with Facebook Login with Google