Log in

One click and you are in

Login with Facebook Login with Google

Why sign up and log in

Guitar Tabs Explorer
Jimi Hendrix tabs for Wild thing

Guitar tabs

I noticed that the tabs already here were incomplete. so I decided to rewrite them.

E-------------------------------------------
B-------------------------------------------
G-------6-6--8-8--6-6-------6-6--8-8--6-6---
D--6-6--6-6--8-8--6-6--6-6--6-6--8-8--6-6---
A--6-6--4-4--6-6--4-4--6-6--4-4--6-6--4-4---
E--4-4-----------------4-4------------------

E-------------------------------------------
B-------------------------------------------
G-------------------------------------------
D--4-6-4-6----------4-6-4-6-----------------
A--4-6-4-6----------4-6-4-6-----------------
E--2-4-2-4----------2-4-2-4-----------------

Pretty much repeat those a few times each. listen to the track to figure out the timing and repeats.

Other versions of Wild Thing

Wild thingChords

Almost there ...

Sign in to get your own page with links to favourite songs and more. You are just one click away...

Login with Facebook Login with Google