Log in

One click and you are in

Login with Facebook Login with Google

Why sign up and log in

Guitar Tabs Explorer
Jimi Hendrix bass tabs for Voodoo chile

Bass tabs

h/hendrix_jimi/Voodoo_Chile.btab

TablEdited by Jan Bjorklund  <jani_bjorklund@yahoo.se>
You are welcome to request for tabs!
Fingering and positions as suggested by TablEdit, please use common sense.

Tuning : E A D G 	Time Signature: 4/4

 |    |    |    |    |    |    |    |
|--------------------------------|--------------------------------|
|--------------------------------|--------0---2---------------2---|
|--------------------------------|--------------------0-----------|
|--------------------------------|0---0-------------0---0-3-------|

 |    |    |    |    |    |    |    |
|----------------------------0---|--------------------------------|
|0-2-----0---2-------2-----------|--------0---2---------------2---|
|------2---------------2---------|--------------------0-----------|
|------------------------3-------|0-0---0-----------0---0-3-------|

 |    |    |    |    |    |    |    |
|--------------------------------|--------4---12------------------|
|0-2-----0---2---------------0---|--2-----------------------------|
|------------------0---1---2-----|------------------0---1---2-----|
|--------------3-----------------|0-------------3-------------3---|

 |    |    |    |    |    |    |    |
|--------------------------------|--------------------------------|
|0-2-----0---2-------2-----------|------------0---------------2---|
|------2---------------2-0-------|--------------------0-----------|
|--------------------------3-----|0-0---3---0-------0---0-3-------|

 |    |    |    |    |    |    |    |
|--------------------------------|--------------------------------|
|0-2-----2-------------------0---|--------0-----2-------------2---|
|------------------0---1-2-------|------------2-------0-----------|
|------------3-------------0-----|0---0-------------0---0-3-------|

 |    |    |    |    |    |    |    |
|--------------------------------|--------------------------------|
|0-2-----0---2-------2-------0---|----2---0---2---------------2---|
|------2---------------2---2-----|--------------------0-----------|
|--------------------------------|0-----------------0---0-3-------|

 |    |    |    |    |    |    |    |
|--------------------------------|--------------------------------|
|0-2-----0---2-------2-----------|------------0---------------2---|
|------2---------------2-0-------|--------------------0-----------|
|----------------------------3-0-|--0---3---0-------0---0-3-------|

 |    |    |    |    |    |    |    |
|--------------------------------|--------------------------------|
|0-2-----2-------------------0---|--------0---------0---------2---|
|------------------0---1-2-------|--------------------------------|
|------------3-------------0-----|0-----0-----0-0-----0---3-------|

 |    |    |    |    |    |    |    |
|--------------------------------|--------------------------------|
|--2-----------2-----2-----------|------------0---------------2---|
|----------------------2-0-------|--------------------0-----------|
|0-----0-3---0---------------3---|0-0---3---0-------0---0-3-------|

 |    |    |    |    |    |    |    |
|--------------------------------|--------------------------------|
|0-2-----2-------------------0---|--------0---------0---------2---|
|------------------0---1-2-------|--------------------------------|
|------------3-------------0-----|0-----0-----0-0-----0---3-------|

 |    |    |    |    |    |    |    |
|--------------------------------|--------------------------------|
|--2-----------2-----2-----------|------------0---------------2---|
|----------------------2-1-------|--------------------0-----------|
|0-----0-3---0-------------------|0-0---3---0-------0---0-3-------|

 |    |    |    |    |    |    |    |
|--------------------------------|--------5---------------5-------|
|0-2-----2-------------------0---|--------------------------------|
|------------------0---1-2-------|3-----3-------3-----3-------3---|
|------------3-------------0-----|------------0-----0-------------|

 |    |    |    |    |    |    |    |
|--7-----5---2-7-----------------|--------------------------------|
|0-----0-----------------0---2---|--------------0-------------2---|
|--------------------3-0---------|--------------------0-----------|
|------------------------------0-|------0-3---0-----0---0-3-------|

 |    |    |    |    |    |    |    |
|------------9-------------------|--------------------------------|
|0-2-----2-------------------0---|--------0---------------------0-|
|----------------------0---2-----|------------------0---1---2-----|
|------------------3-------------|0-----0---0---3-----------------|

 |    |    |    |    |    |    |    |
|--------------------2-0-4---7---|--------------------------------|
|--2-----------2-----------------|------------------------0---2---|
|------------0-------------------|--------------0-----2-----------|
|----3---------------------------|0-0---3---0-------0---0---------|

 |    |    |    |    |    |    |    |
|--------4---0-------------------|--------------------------------|
|0-2-------------------------0---|--2---0-------------------0-----|
|------------------0---1-2-------|----------2---1---0-------------|
|--------------------------0-----|0---------------------3-----0---|

 |    |    |    |    |    |    |    |
|0-------------------------------|--------------------------------|
|--2-----------------------0-----|2-----0-------------------------|
|--------0---------0---2-------2-|--------------4-------2-----0---|
|----------0-----3---------------|--0-------0-------0-----3-------|

 |    |    |    |    |    |    |    |
|--------------0---------2-0-----|--------4---12------------------|
|--2-----------------0-2---------|--2---------------------------0-|
|--------0-----------------------|------------------0---1---2-----|
|0---3-------0-------------------|0-------------3-----------------|

 |    |    |    |    |    |    |    |
|--------------------------------|3---2---0-----------------------|
|--------0-------------------0---|------------------0---------2---|
|------------------0---1-2-------|--------------------------------|
|0-3---------3-------------0-----|------------0-------0---3-------|

 |    |    |    |    |    |    |    |
|0-----0---2---4-----9-3-2---0---|--------------------------------|
|--2-----------------------------|2-----------0---------------2---|
|--------------------------------|--------------------0-----------|
|--------------------------------|--0---3---0-------0---0-3-------|

 |    |    |    |
|--------------------------------|
|0-2-----2-------------------0---|
|------------------0---1-2-------|
|------------3-------------0-----|



............................................................

Almost there ...

Sign in to get your own page with links to favourite songs and more. You are just one click away...

Login with Facebook Login with Google