Log in

One click and you are in

Login with Facebook Login with Google

Why sign up and log in

Guitar Tabs Explorer
Jimi Hendrix tabs for Villa nova junction

Guitar tabs

Villa Nova Juction BY Jimi Hendrix
Off the Woodstock Album

Transcribed by Nathan Manning

^bend
/slide up
H=HAMMERON
\SLIDE DOWN

down tune 1/2 step

This song is an instumental tune in A chord diagramA augmentedA
------------------------------------I-----------------------------
------------------------------------I-----------------------------
------------5---7----8-7/9\7\5----7-I-----------------------------
----7---7---------------------------I--7---7---7---7---7---7---7--
------------3---5----5-5/7\5\3----5-I-----------------------------
----5---5---------------------------I--5---5---5---5---5---5---5--


----------------------------------I-----------------------5-------
---------------------8/10-10/8----I-------------------------------
------------5---7-----------------I--7-------X---X--X--X----------
----7---7------------5/-7--7/5----I----------X---X--X--X----------
------------3---5-----------------I--5---5---X---X--X--X----------
----5---5-------------------------I-------------------------------

                             HP
---------------------I----5--8--5---------------------------------
---------------------I----6---------------------------------------
--------------5------I-------------------5------------------5-H-7-
---------------------I----------------7--7------------5---7-------
--5---8---5-------5--I----------------5-------5--5-H-7------------
---------------------I--------------------------------------------

-------------------7-h-5-------I----------5-----------------------
-------------------5-----------I--------5-------------------------
-------------------------------I-------------5-H-7----------------
---5---7---7---------------7---I--------7-----------5--7--5-------
-------------------------------I------------------------------7---
---------------------------5---I----------------------------------


------------------------------------------------------------------
------------------------------------------------------------------
---x----------10---9---8-------5----------------------------------
---x---------------------------3----------------------------------
---x---8---8---8---7---6----5---------5---5---5---5---------------
-------------------------------------------------------8^---------


------------------------------------------------------------------I
-------------HP---------------------------------------------------I
-----------5-7--5----------------------------5--------------------I
-----7---------------5H7-----5H7--------5-------------------------I
------------------------------------------------------------------I
---5----------------------------------------------5---------------I

I tried to get someone to post this and no one did so i just figured
it out myself so here it is.

Almost there ...

Sign in to get your own page with links to favourite songs and more. You are just one click away...

Login with Facebook Login with Google