Log in

One click and you are in

Login with Facebook Login with Google

Why sign up and log in

Guitar Tabs Explorer
Jimi Hendrix bass tabs for Red house

Bass tabs

Intro

Gb|-------------------------|-------------------------|
Db|-------------------------|-------------------------|
Ab|-------------------------|-------------------------|
Eb|-7-r---7-r---7-r---7-r---|-7-r---7-r---7-r---7-r---|
  1 + + 2 + + 3 + + 4 + +  1 + + 2 + + 3 + + 4 + +

Gb|-------------------------|-------------------------|
Db|-------------------------|-------------------------|
Ab|-------------------------|-------------------------|
Eb|-7-r---------------------|-------------------------|
  1 + + 2 + + 3 + + 4 + +  1 + + 2 + + 3 + + 4 + +

Gb|-------------------------|-------------------------|
Db|-------------------------|-----------------2-------|
Ab|-------------------5---4-|-------------------5--/9-|
Eb|-0---0-3---4-0---0-------|-0---0-3---4-0-----------|
  1 + + 2 + + 3 + + 4 + +  1 + + 2 + + 3 + + 4 + +

Gb|---------------------------|--------------------------|
Db|---------------------------|--------------------------|
Ab|-----9-11--11-12--12-11--11|-----9-11--11-9---9-11--7-|
Eb|-7-------------------------|-7------------------------|
  1 + + 2 + + 3 + + 4 + +  1 + + 2 + + 3 + + 4 + +

Gb|-------------------------|-------------------------|
Db|-------------------------|-------------------------|
Ab|-----4-6---6-4---4-6---4-|-------------------5--/9-|
Eb|-2-----------------------|-0---0-3---4-0---2-------|
  1 + + 2 + + 3 + + 4 + +  1 + + 2 + + 3 + + 4 + +

Gb|---------------------------|-------------------------|
Db|---------------------------|-------------------------|
Ab|-----9-11--11-9---9-11--11-|-----9-r-7-8-9-----9-r-8-|
Eb|-7-------------------------|-7-----------------------|
  1 + + 2 + + 3 + + 4 + +  1 + + 2 + + 3 + + 4 + +

Verse 1

Gb|--------------------------|-------------------------|
Db|--------------------------|-------------------------|
Ab|-----9-11--9-12--12-11--9-|-----------------2-5---4-|
Eb|-7------------------------|-0---0-3---4-0-----------|
  1 + + 2 + + 3 + + 4 + +  1 + + 2 + + 3 + + 4 + +

Gb|---------------------------|---------------------------|
Db|---------------------------|---------------------------|
Ab|-----9-11--11-9---9-11--11-|-----9-11--11-12--12-11--9-|
Eb|-7-------------------------|-7-------------------------|
  1 + + 2 + + 3 + + 4 + +  1 + + 2 + + 3 + + 4 + +

Gb|-------------------------|-------------------------|
Db|-------------------------|-------------------------|
Ab|-----2-------------5---4-|-------------------5--/8-|
Eb|-0-----3---4-0---0-------|-0---0-3---4-0---0-------|
  1 + + 2 + + 3 + + 4 + +  1 + + 2 + + 3 + + 4 + +

Gb|---------------------------|--------------------------|
Db|---------------------------|--------------------------|
Ab|-------11--11-9-----9---11-|-----9-11--11-9-----11----|
Eb|-7---7------------7--------|-7----------------7-----0-|
  1 + + 2 + + 3 + + 4 + +  1 + + 2 + + 3 + + 4 + +

Gb|-------------------------|-------------------------|
Db|-------------------------|-------------------------|
Ab|-----4-6---6-4---4-6---4-|-------------------5---4-|
Eb|-2-----------------------|-0---0-3---4-0---0-------|
  1 + + 2 + + 3 + + 4 + +  1 + + 2 + + 3 + + 4 + +

Gb|---------------------------|--------------------------|
Db|---------------------------|--------------------------|
Ab|-----9-11--11-9---9-11--11-|-----9-11-9-7-9-----9-9-8-|
Eb|-7-------------------------|-7------------------------|
  1 + + 2 + + 3 + + 4 + +  1 + + 2 + + 3 + + 4 + +


Verse 2

Gb|---------------------------|-------------------------|
Db|---------------------------|-------------------------|
Ab|-----9-11--11-12--12-11--9-|-------------------5---4-|
Eb|-7-------------------------|-0---0-3---4-0---0-------|
  1 + + 2 + + 3 + + 4 + +  1 + + 2 + + 3 + + 4 + +

Gb|----------------------------|---------------------------|
Db|----------------------------|---------------------------|
Ab|-----9-11--11-12--12-11--11-|-----9-11--11-12--12-11--7-|
Eb|-7--------------------------|-7-------------------------|
  1 + + 2 + + 3 + + 4 + +  1 + + 2 + + 3 + + 4 + +

Gb|-------------------------|-------------------------|
Db|-------------------------|-2---2-----------2-------|
Ab|-----------------2-5-4-2-|-------------------5---4-|
Eb|-0---0-3---4-0-----------|-------3---4-0-----------|
  1 + + 2 + + 3 + + 4 + +  1 + + 2 + + 3 + + 4 + +

Gb|---------------------------|---------------------------|
Db|---------------------------|---------------------------|
Ab|-----9-11--11-9---9-11--11-|-----9-11--r-9-----11-9-4-|
Eb|-7-------------------------|-7-------------------------|
  1 + + 2 + + 3 + + 4 + +  1 + + 2 + + 3 + + 4 + +

Gb|-------------------------|-------------------------|
Db|-------------------------|-------------------------|
Ab|-----4-6---6-4---4-6-4-6-|-----------------2-5-4-4/|
Eb|-2-----------------------|-0---0-3---4-0-----------|
  1 + + 2 + + 3 + + 4 + +  1 + + 2 + + 3 + + 4 + +

Gb|---------------------------|---------------------------|
Db|---------------------------|---------------------------|
Ab|-----9-11--11-9---9-11--11-|-----9-11-9-7-9--7-9-9-7-8-|
Eb|-7-------------------------|-7-r-----------------------|
  1 + + 2 + + 3 + + 4 + +  1 + + 2 + + 3 + + 4 + +


Solo

Gb|---------------------------|-------------------------|
Db|---------------------------|-------------------------|
Ab|-----9-11--11-12--12-11--0-|-----2-----------2-5-4-2-|
Eb|-7-------------------------|-0-----3---4-0-----------|
  1 + + 2 + + 3 + + 4 + +  1 + + 2 + + 3 + + 4 + +

Gb|---------------------------|--------------------------|
Db|---------------------------|--------------------------|
Ab|-----9-11----12--12-11--11-|----9-11--11-12--12-11--0-|
Eb|-7---------7---------------|-7------------------------|
  1 + + 2 + + 3 + + 4 + +  1 + + 2 + + 3 + + 4 + +

Gb|-------------------------|--------------------------|
Db|-------------------------|--------------------------|
Ab|-----2-----------2-5-4-2-|-----------------2-5-4-/9-|
Eb|-0-----3---4-0-----------|-0---0-3---4-0------------|
  1 + + 2 + + 3 + + 4 + +  1 + + 2 + + 3 + + 4 + +

Gb|---------------------------|--------------------------|
Db|---------------------------|--------------------------|
Ab|-----9-11--11-9---9-11--11-|-----9-11--11-9---9-11--0-|
Eb|-7-------------------------|-7------------------------|
  1 + + 2 + + 3 + + 4 + +  1 + + 2 + + 3 + + 4 + +

Gb|-------------------------|-------------------------|
Db|-------------------------|-------------------------|
Ab|-----4-----6-4---4-6-4-0-|-----------------2-5-4-6-|
Eb|-2-----2-----------------|-0---0-3---4-0-----------|
  1 + + 2 + + 3 + + 4 + +  1 + + 2 + + 3 + + 4 + +

Gb|--------------------------|--------------------------|
Db|--------------------------|--------------------------|
Ab|-----9-11--9-9---9-11--11-|-----9-11-9-0-9---9-9-9-8-|
Eb|-7------------------------|-7------------------------|
  1 + + 2 + + 3 + + 4 + +  1 + + 2 + + 3 + + 4 + +


Verse 3

Gb|----------------------------|-------------------------|
Db|----------------------------|-------------------------|
Ab|-----9-11--11-12--12-11-9-0-|-----------------2-5-4-4-|
Eb|-7--------------------------|-0---0-3---4-0-----------|
  1 + + 2 + + 3 + + 4 + +  1 + + 2 + + 3 + + 4 + +

Gb|--------------------------|---------------------------|
Db|--------------------------|---------------------------|
Ab|-----9-11--11-9---9-11--9-|-----9-11--11-9-----11-9-0-|
Eb|-7------------------------|-7----------------7--------|
  1 + + 2 + + 3 + + 4 + +  1 + + 2 + + 3 + + 4 + +

Gb|-------------------------|-------------------------|
Db|-2-----------------------|-------------------------|
Ab|-----------------2-5-4-2-|-----2-------2---2-5-4-6/|
Eb|-----0-3---4-0-----------|-0-----3---4-------------|
  1 + + 2 + + 3 + + 4 + +  1 + + 2 + + 3 + + 4 + +

Gb|---------------------------|--------------------------|
Db|---------------------------|--------------------------|
Ab|-----9-11--11-9---9-11--11-|----9-11--11-9---9-11-9-0-|
Eb|-7-------------------------|-7------------------------|
  1 + + 2 + + 3 + + 4 + +  1 + + 2 + + 3 + + 4 + +

Gb|-------------------------|-------------------------|
Db|-------------------------|-------------------------|
Ab|-----4-6---6-4---4-6---4-|-------------------------|
Eb|-2-----------------------|-0-r---------------------|
  1 + + 2 + + 3 + + 4 + +  1 + + 2 + + 3 + + 4 + +

Eb|-------------------------| |-------------|
Db|-------------------------|6|-------------|
Ab|-------6---6-7---7-8---9-|8|-9-r---------|
Eb|-7---7-------------------| |-------6---7-|
  1 + + 2 + + 3 + + 4 + +   1 + + 2 + +

Gb| |-------------------------|-------------------------|
Db|12|-------------------------|-------------------------|
Ab|8 |-------------------------|-------------------------|
Eb| |-------------------------|-r-----------------------|
    1 + + 2 + + 3 + + 4 + +  1 + + 2 + + 3 + + 4 + +

Almost there ...

Sign in to get your own page with links to favourite songs and more. You are just one click away...

Login with Facebook Login with Google