Manic Depression by Jimi Hendrix

Manic Depression bass tab by Jimi Hendrix

Bass tabs

"Manic Depression" by Jimi Hendrix
>From the album "Are you experienced?"
Bass tab

This cool Hendrix-song is in 3/4 time. Listen to the song to get
the rhythm and the feeling.

 Intro:
              (x4)
|-------------------|-----------|
|-------------4-5-6-|.---6-4-6-.|
|-4-5-6-------------|.---------.|
|-------------------|--4--------|

 Verse:
              (x4)
|-------------------|-----------|
|-------------------|.---6-4-6-.|
|---3-6---1-4-4-5-6-|.---------.|
|-4-----2-----------|--4--------| x2,then:

|-----3---3-6-6---4-6-4-6-4-6-4-----------------------------|
|---5---4-----------------------4-3-4-3-4-3-4-3-------------|
|-6-----------------------------------------------3-6---1-4-|
|-----------------------------------------------4-----2-----|

Then play the intro and verse again.

After-verse-part:

|--------------------------------------|
|-------------4-5-6--------------4-5-6-|
|-4-5-6--------------------4-5-6-------|
|--------------------------------------|

 Guitar Solo:

|-----------|
|.---6-4-6-.|      Then play the verse part one time.
|.---------.|      For the outro you just play the
|--4--------| x36    after-verse-part with some variations.


 End:

|------------------------|
|------------------------|
|------------------------|
|--4---4---4---4---4-----|


Joar Guterstam (guterstam@mailbox.swipnet.se)

Find guitar tabs and chords

A B C D E F G H I J K L M N O P Q R S T U V W X Y Z #