Log in

One click and you are in

Login with Facebook Login with Google

Why sign up and log in

Guitar Tabs Explorer
Jimi Hendrix bass tabs for Machine gun

Bass tabs

G|8-6-8-6-8------------|-----6-8--------|--------------------|
D|-----------8-7-6-4---|------------4-6-|------------------4-|
A|-------------------6-|6--6------6-----|6-4-6-4-6-------4---|
E|---------------------|----------------|-----------6--6-----|


G|---------------------|---------------------|
D|-----------8-7-6-4---|-----------/8-6-4----|
A|6-4-6-4-6----------6-|6-4-6-4-6---------4--|
E|---------------------|---------------------|

I had seen it posted with the latter part first, but in my opinion i think it

Almost there ...

Sign in to get your own page with links to favourite songs and more. You are just one click away...

Login with Facebook Login with Google