Log in

One click and you are in

Login with Facebook Login with Google

Why sign up and log in

Guitar Tabs Explorer
Jimi Hendrix tabs for Little wing

Intro

Intro:

-x-12----x-x----------------------3h5p3---------
-x-12----x-x----------------------3-----3-------
-x-12----x-x------------------------------0-----
-x--------x-x------5-----7--5h7------------------
-x--------x-x--------5h7----5--------------------
-x-----0--x-x--5h7--------------3----------------

-------------------------------------------------
-------------------------------------------------
-5-5-4h5p4-----------5---5h7p5-------------------
-5-5-5-----5-----------5-5-----7--5h7p5----------
-----------------5h7---------------------5h7p5---
--------------5---------------------------------7

-3h5p3-----------------------------9-10-9--------
-3-----3---------------------------7------10--7--
---------0-------------------------7-------------
-----------------5--7/9--7/5-------7-------------
--------------7--------------7-------------------
---------------------------------7---------------

-----------------------------------------5/7--5--
-----------------------------------------0/0--0--
-----------------------------------------4/6--4--
---8----7-------9-7-5-----5-7-5----------5/7--5--
---6----5-------------8-7------------------------
-6----5--------------------------5/7--3----------
                A chord diagramC majorC        A chord diagramD MajorD
-5/3--3--3-3-------------------------------------
-0/0--0--0-0-------------------------------------
-4/2--2--2-2-------------------------------------
-5/3--3--3-3------------------7h9-7-7------------
--------------------------------------10-7-9-----
-------------------------------------------------

Chris Colavecchia

Other versions of Little Wing

Little wingChords
Little wing (Ver. 2)Chords
Little wingTabs

Almost there ...

Sign in to get your own page with links to favourite songs and more. You are just one click away...

Login with Facebook Login with Google