GuitarTabsExplorer icon
GuitarTabsExplorer icon

Log in

Songbook

  • Log in to add and see bookmarks

Last visited songs

  • No songs visited yet...
Little Wing by Jimi Hendrix

Little Wing bass tab by Jimi Hendrix

Bass tabs

h/hendrix_jimi/Little_wing.btab

TablEdited by Jan Bjorklund
You are welcome to request for tabs!
Fingering and positions as suggested by TablEdit, please use common sense.


TablEdited by Jan Bjorklund
Tuning : E A D G 	Time Signature: 4/4

 |        |        |        |
|----------------------------------------------------------------|
|1---------------1---------------1-------1---------------1-----3-|
|------------------------------------------------------4---------|
|----------------------------------------------------------------|

 |        |        |        |
|----------------------------------------------------------------|
|4-------------------------------4-------4---------------4-------|
|------------------------------4-----------------------4---------|
|----------------------------------------------------------------|

 |        |        |        |
|1-------------------------------1-------1-----------------------|
|------------------------------1-----------------4-----4---------|
|----------------------------------------------------------------|
|----------------------------------------------------------------|

 |        |        |        |
|----------------------------------------------------------------|
|1-------------------------------3-------1-------1-------1-------|
|------------------------------1---------------4-------4---------|
|----------------------------------------------------------------|

 |        |        |        |
|3-------------------------------3-------------------------------|
|------------------------------3-------3-------------------------|
|----------------------------------------1-------------0---------|
|----------------------------------------------------------------|

 |        |        |        |
|----------------------------------------------------------------|
|----------------------------------------------------------------|
|--------------------------------2-------2---------------2-------|
|4-------4---------------------4-----------------------2---------|

 |        |        |        |
|----------------------------------------------------------------|
|----------------------------------------------------------------|
|----------------1-------4---------------------------------------|
|2-------------2-----------------0-------0---------------------0-|

 |        |
|--------------------------------|
|--------------------------------|
|2-------2---------------------2-|
|--------------------------------|

 |        |        |        |
|----------------------------------------------------------------|
|----------------------------------------------------------------|
|4-------4---------------4-------4-------4---------------4-------|
|----------------------4-------4-----------------------4-------4-|

 |        |        |        |
|----------------------------------------------------------------|
|----------------------------------------------------------------|
|4---------------------------------------------------------------|
|----------------------------------------------------------------|

 |        |        |        |
|----------------------------------------------------------------|
|1---------------1---------------1-------1-----------------------|
|----------------------------------------------------------------|
|----------------------------------------------------------------|

 |        |        |        |
|----------------------------------------------------------------|
|4-------4---------------4-------2-------2---------------2-----4-|
|----------------------4-----------------------------------------|
|----------------------------------------------------------------|

 |        |
|--------------------------------|
|--------------------------------|
|2-------2---------------2-------|
|--------------------------------|

 |        |        |        |
|----------------------------------------------------------------|
|----------------------------------------------------------------|
|4-------4---------------4---------------4---------------4-------|
|----------------------------------------------------------------|

 |        |        |        |
|----------------------------------------------------------------|
|----1---1-------------------------------------------------------|
|4---------------------------------------------------------------|
|----------------------------------------------------------------|

 |        |        |        |
|----------------------------------------------------------------|
|1-------------------------------1-------------------------------|
|------------------------------1---------4-------1---------------|
|--------------------------------------------------------4-------|

 |        |        |        |
|----------------------------------------------------------------|
|--------------------------------4-------4---------------4-------|
|------------------------------4-----------------------4-------4-|
|2---------------------------------------------------------------|

 |        |        |        |
|1-------------------------------1-------------------------------|
|------------------------------1-------1-------------------------|
|------------------------------------------------------1---------|
|----------------------------------------4-----------------------|

 |        |        |        |
|----------------------------------------------------------------|
|1-------------------------------1-------1-------4-----3-1-------|
|------------------------------1---------------------------------|
|----------------------------------------------------------------|

 |        |        |        |
|----------------------------------------------------------------|
|----------------------------------------------------------------|
|1-------------------------------1-------1-----------1-----------|
|------------------------------1---------------------------------|

 |        |        |        |
|----------------------------------------------------------------|
|--------------------------------------------------------1-------|
|--------------------------------2-------2-----------2-----------|
|4-----------------------------2---------------------------------|

 |        |        |        |
|----------------------------------------------------------------|
|4-------4---------------4-------2-------2---------------2-----4-|
|--------------------4---------4---------------------------------|
|----------------------------------------------------------------|

 |        |
|--------------------------------|
|--------------------------------|
|2-------2---------------2-------|
|--------------------------------|

 |        |        |        |
|----------------------------------------------------------------|
|----------------------------------------------------------------|
|4-------4---------------4---------------4-----------4---------1-|
|----------------------------------------------------------------|

 |        |        |        |
|----------------------------------------------------------------|
|1---------------------------------------------------------------|
|----------------------------------------------------------------|
|----------------------------------------------------------------|

 |        |        |        |
|----------------------------------------------------------------|
|1-------------------------------1-------------------------------|
|------------------------------1---------4-------1---------------|
|--------------------------------------------------------4-------|

 |        |        |        |
|----------------------------------------------------------------|
|--------------------------------4-------4---------------4-------|
|------------------------------4-----------------------4-------4-|
|2---------------------------------------------------------------|

 |        |        |        |
|1-------------------------------1-------------------------------|
|------------------------------1-------1-------------------------|
|------------------------------------------------------1---------|
|----------------------------------------4-----------------------|


m/


............................................................

[ Privacy | About us ]

Welcome to the guitar community

Why join and log in?
- Get songbook with favourite songs
- Get custom made front page
- Submit chords and tabs
- Submit guitar-cover videos
- Get a lot of thumbs up for your work

Songbook

Last visited songs

Site
Home
Search
Community
Submit chords

Video

No video for this page. Check out how you can submit guitar-cover videos here

Search tabs and chords

Browse by artist

A B C D E F G H I J K L M N O P Q R S T U V W X Y Z #


Menu

Search

Video

Bookmark

Login