GuitarTabsExplorer icon
GuitarTabsExplorer icon

Log in

Songbook

  • Log in to add and see bookmarks

Last visited songs

  • No songs visited yet...
Like A Rolling Stone by Jimi Hendrix

Like A Rolling Stone bass tab by Jimi Hendrix

Bass tabs

LYRICS:
Once upon a time you dressed so fine
Threw the bums a dime in your prime, didn't you
Peopled called you, said 'beware the doll, you're bound to fall',
You thought they were all kidding you
You used to laugh about
Everybody else that was hanging out
Now you don't talk so loud
Now you don't seem so proud
About having to be scrounging around for your next meal

How does it feel
How does it feel
To be on your own
In no direction home
Like a complete unknown
Like a rolling stone.


    Intro:
    G-----------------------------------------------------------------------------|
    D------5--5-7--7-5-7--5------5--5-7--7-5-7--5---------------------------------|
    A-5--5------------------5--5--------------------------------------------------|
    E-----------------------------------------------------------------------------|2x

    Chorus:
    G-----------------------------------------------------------------------------|
    D------5--5-7--7-5-7--5------5--5-7--7-5-7--5---------------------------------|
    A-5--5------------------5--5--------------------------------------------------|
    E-----------------------------------------------------------------------------|7x

    Outro:
    G-----------------------------------------------------------------------------|
    D------5--5-7--7-5-7--5------5--5-7--7-5-7--5---------------------------------|
    A-5--5------------------5--5--------------------------------------------------|
    E-----------------------------------------------------------------------------|2x

[ Privacy | About us ]

Welcome to the guitar community

Why join and log in?
- Get songbook with favourite songs
- Get custom made front page
- Submit chords and tabs
- Submit guitar-cover videos
- Get a lot of thumbs up for your work

Songbook

Last visited songs

Site
Home
Search
Community
Submit chords

Video

No video for this page. Check out how you can submit guitar-cover videos here

Search tabs and chords

Browse by artist

A B C D E F G H I J K L M N O P Q R S T U V W X Y Z #


Menu

Search

Video

Bookmark

Login