Log in

One click and you are in

Login with Facebook Login with Google

Why sign up and log in

Guitar Tabs Explorer
Jimi Hendrix tabs for Killing floor (Ver. 2)

Guitar tabs

Killing Floor

It isn't absolutely perfect but here is something for you to play around with.

Time to break my tabbing virginity...

|--------------------------------------|
|--------------------------------------|
|---------------------------------7-5--|
|----5h7--7-7-7-7p5----5h7-7-7-7--7-5--|
|----0----0-0-0-0------0---0-0-0-------|
|------------------8-------------------|

|--------------------------------------|
|--------------------------------------|
|---------------------------------7-5--|
|----5h7--7-7-7-7p5----5h7-7-7-7--7-5--|
|----0----0-0-0-0------0---0-0-0-------|
|------------------8-------------------|

|--------------------------------------|
|--------------------------------------|
|-----------7-5-------------7-5--------|
|----5h7--7-7-5-----5h7--7--7-5--------|
|----0--------------0------------------|
|--------------------------------------|

|----------------------------------------------------------|
|----------------------------------------------------------|
|---------7-7-5-5----------------------7-7-5-5-------------|
|----5h7--7-7-5-5--5h7p5----------5h7--7-7-5-5--5h7p5------|
|----0-------------0--------------0-------------0----------|
|------------------------8----------------------------8----|

|--------------------------------------|
|--------------------------------------|
|-----------------------------7-7-7----|
|---------------------------5-6-6-6----|
|---------------5-55--7-77----7-7-7----|
|----5-55--8-88------------------------|

|-----------------------------------------------|
|-----------------------------------------------|
|------------------------5^---------------------|
|--------7-77-5-55-----------7-77-5-55----------|
|------------------7p5-----------------7p5------|
|----5-55--------------8-------------------8----|

|-----------------------------------------------|
|-----------------------------------------------|
|------------------------5^---------------------|
|--------7-77-5-55-----------7-77-5-55----------|
|------------------7p5-----------------7p5------|
|----5-55--------------8-------------------8----|

|--------------------------------------|
|--------------------------------------|
|--5------------------5----------------|
|------7-5---5-7----------7-5---5-7----|
|----------7------------------7--------|
|--------------------------------------|

|-----------------------------------------------|
|-----------------------------------------------|
|------------------------5^---------------------|
|--------7-77-5-55-----------7-77-5-55----------|
|------------------7p5-----------------7p5------|
|----5-55--------------8-------------------8----|


I dunno, spmething like that i hope, this was my first tab so be gentle :)

Other versions of Killing Floor

Killing floorTabs

Almost there ...

Sign in to get your own page with links to favourite songs and more. You are just one click away...

Login with Facebook Login with Google