Log in

One click and you are in

Login with Facebook Login with Google

Why sign up and log in

Guitar Tabs Explorer
Jimi Hendrix tabs for I dont live today

Guitar tabs with lyrics

Jimi Hendrix Experience

I Don't Live Today

From the album Are You Experienced? (1967)

Track 6 - British Release and American Release

MCA Records INC

Tabbed by Jamie Cruickshank
!!!!ALL MY OWN WORK!!!!


This a great song from a classic album. I was suprised noone had
submited it yet.



intro

e------------------------------------------------------

b----------------10-10-9------------10-10-9------------

g------------------------------------------------------

d----------------9--9--9------------9--9--9------------

a------------9------------------9----------------------

e---7-7-9/11---7---------7-9/11---7---------7----------



verse1


e--------------:|----------------|---------------------

b--------------:|----------------|---------------------

g--------------:|----------------|---------------------

d--7-7---------:|-7-7----------7-|-7-7----------4------

a------9-7-----:|-----9-7--------|-----9-7-------------

e----------10-7:|---------10-7-5-|---------10-7-2------

repeats: 1.2.4.6.       3.                 5.


verse 2 is pretty much the same except:

at the end of each figure there is a eigth note tremolo pattern

on the third repeat a second guitar hits an open g string folowed

by a huge trem bar dive

on the 6th repeat a second guitar plays:

e---------------------------

b---------------------------

g---------7b9-------7-------

d-7-7---------9-9---7-8-9---

a-----9-7-------9-----------

e---------------7-----------

                ^ strum ad lib


chorus

e-10---10-----------|------------------------------------

b-10---10-----------|-------------10-10------------------

g-9b11-9b11--7-8-9--|-------11-11-------9----------------

d-------------------|-9--9--------7--7-------------------

a------------5-6-7--|-------9--9--------7----------------

e-------------------|-7--7-------------------------------

   x3

e-10---10-----------|------------------------------------

b-10---10-----------|------------------------------------

g-9b11-9b11--7-8-9--|------------------------------------

d-------------------|------------------------------------

a------------5-6-7--|-------9--9--------7--7-------------

e-------------------|-7--7--------5--5-------------------

     x3

Almost there ...

Sign in to get your own page with links to favourite songs and more. You are just one click away...

Login with Facebook Login with Google