Log in

One click and you are in

Login with Facebook Login with Google

Why sign up and log in

Guitar Tabs Explorer
Jimi Hendrix bass tabs for Hey joe

Bass tabs

You don’t really have to bend all the notes that are marked. It sounds nice
if you do it now and again. It also sounds good if you change it to <5th
fret, 2nd string> once or twice
Intro:

G ------7------7---------------------
D -7--9---7--9---9-------------------
A -----------------------------------
E -----------------------------------



Part 1 (b=bend):

G -5---5---4-5---7---7--------------------------------------------
D -------5-------------7------------------------------------------
A -----------------------4-5-6--7-7-7---5---b5--7-7-7---5---b5----
E ------------------------------------7---7-----------7---7-------


Part 2 (b=bend):

G -5--------4-5-6-7---------6-7-8----------------------------------
D --2-3-4-5---------4-5-6-7----------------------------------------
A ---------------------------------7-7-7---5---b5--7-7-7---5---b5--
E ---------------------------------------7---7-----------7---7-----



The whole song goes:
a) Part1 x 10
b) Part2 x 1
c) Part1 x 3
d) Part2 x 1
e) Part1 x 1
f) Part2 x 1 (fade out)

Other versions of Hey Joe

Hey joe (Ver. 2)Bass tabs

Almost there ...

Sign in to get your own page with links to favourite songs and more. You are just one click away...

Login with Facebook Login with Google