Log in

One click and you are in

Login with Facebook Login with Google

Why sign up and log in

Guitar Tabs Explorer
Jimi Hendrix bass tabs for Hey baby

Bass tabs

Hey Baby (New Rising Sun) - Jimi Hendrix
Transcribed by Cullan Briggs - culloid@rogers.com

 intro (first 1:05)

G|-------------------0-1-2-3-3-------------7-8-9-10---10-10--------
D|--0--0---0-1-2-3-4------------5-6-7-8-10-------------------------
A|-----------------------------------------------------------------
E|-----------------------------------------------------------------

G|--10-8------------------------------------------------------------
D|-------10--10-8-----------------13-12-11-10-----------------------
A|----------------10--10-8--------------------13-12-11-10----13-13--
E|-------------------------10-----------------------------13--------

G|----------------------------------------------------------8--------------------------
D|-----------10-------------------------------------11-10-8---11-10-8------------------
A|-----10-13---11-------------11-10-8----11-10-8----------------------11-10-8----------
E|--11------------13-11---------------11---------11---------------------------11-8-----

G|--------------------------------------------------------------------------
D|--11--11----9-9--------------------11--11----9-9--------------------------
A|---------11-----8--9-10-11-12-13----------11-----8-9-10-11-12-13----------
E|--------------------------------------------------------------------------

G|-------------10-----------------------
D|--13--13--13----13-12-13-12-10--------
A|-------------------------------13-11--
E|--------------------------------------

G|------------7--------------------
D|--10-10--10---10-9-10-9-7--------
A|--------------------------10-8---
E|---------------------------------

G|---------4---------------------
D|--7-7--7---7-6-7-6-4-----------
A|---------------------7--5------
E|-------------------------------

end of intro


Chorus-May I Come Along

G|---------4-4-5-------------4-5-7----4-4-5------------4-5-7---
D|---5-5-5-------3-2-1-0---5--------5-------3-2-1-0--5---------
A|-------------------------------------------------------------
E|-------------------------------------------------------------
        riff
G|-------2--5-------2-0-------
D|--0--3--------0-3-----3-5---
A|----------------------------
E|----------------------------

Almost there ...

Sign in to get your own page with links to favourite songs and more. You are just one click away...

Login with Facebook Login with Google