Log in

One click and you are in

Login with Facebook Login with Google

Why sign up and log in

Guitar Tabs Explorer
Jimi Hendrix tabs for Firepile

Guitar tabs with lyrics

A chord diagramE MajorE        A chord diagramA augmentedA        A chord diagramBB
e|-------|----5---|----7---|
A chord diagramBB|-------|----5---|----7---|
A chord diagramG+G|---1---|----6---|----8---|
A chord diagramD MajorD|---2---|----7---|----9---|
A chord diagramA augmentedA|---2---|----7---|----9---|
A chord diagramE MajorE|-------|----5---|----7---|

--- start ---

A chord diagramE MajorE A chord diagramA augmentedA A chord diagramBB A chord diagramA augmentedA

A chord diagramE MajorE
   This is him
           A chord diagramA augmentedA         A chord diagramBB  A chord diagramA augmentedA       A chord diagramE MajorE A chord diagramA augmentedA A chord diagramBB A chord diagramA augmentedA
   When I,   when I,    I begin

A chord diagramE MajorE                         A chord diagramA augmentedA     A chord diagramBB A chord diagramA augmentedA
   Call him tied call him taken
A chord diagramE MajorE                        A chord diagramA augmentedA      A chord diagramBB
   Call him anything but shaken
   A chord diagramA augmentedA        A chord diagramE MajorE
   Call him wasted call him shaved
            A chord diagramA augmentedA             A chord diagramBB           A chord diagramA augmentedA
   Call him anything but  shaved
A chord diagramE MajorE                       A chord diagramA augmentedA    A chord diagramBB A chord diagramA augmentedA
   Call that firepile a home

         A chord diagramE MajorE
   Don't give away the end
          A chord diagramA augmentedA
   I come back
                  A chord diagramBB  A chord diagramA augmentedA
   I rush to wait
A chord diagramE MajorE                               A chord diagramA augmentedA
   Where the pavement starts to crack
                 A chord diagramBB    A chord diagramA augmentedA
   I put my foot down

A chord diagramE MajorE
   The sidewalk's so hot
A chord diagramA augmentedA                        A chord diagramBB A chord diagramA augmentedA
   The sidewalk's so hot
A chord diagramE MajorE
   Think of all the junk
           A chord diagramA augmentedA                A chord diagramBB   A chord diagramA augmentedA     A chord diagramE MajorE     A chord diagramA augmentedA
   I could lay my hands on, purify my heart
        A chord diagramBB   A chord diagramA augmentedA           A chord diagramE MajorE
   That firepile's your home

 F7:F7 ?


e-------------------------------------------------------
b-------------------------------------------------------
g-------------------------------------------------------
d-------------------------------------------------------
a--7---
e-------------------------------------------------------

e||-----------------------------------------------------
b||-----------------------------------------------------
g||.----------------------------------------------------
d||.----------------------------------------------------
a||-----------------------------------------------------
e||------0-3-0-3-3s5-----0-0-0-3s12-12------------------

e------------------------------------------------------|
b------------------------------------------------------|
g-----------------------------------------------------.|
d-----------------------------------------------------.|
a-----------0-2-2-2s10-12-12-10-7--------|
e---0-3-0-3--------------------------------------------|

e-------------------------------------------------------
b-------------------------------------------------------
g----------------------------------------------1--------
d------5-------5-5-7-7-9-9-7-5s2--2s9-7-5------2--------
a--7-7---7---7----------------------------5----2--------
e-------------------------------------------------------

A chord diagramE MajorE                       A chord diagramA augmentedA
   Your baby's running faster
             A chord diagramBB       A chord diagramA augmentedA       A chord diagramE MajorE
   Count the times I left my clothes out
                            A chord diagramA augmentedA
   Count the tires one more time
             A chord diagramBB       A chord diagramA augmentedA       A chord diagramE MajorE       A chord diagramA augmentedA
   Count the times I let the air out
        A chord diagramBB   A chord diagramA augmentedA           A chord diagramE MajorE    A chord diagramA augmentedA
   That firepile's your home
              A chord diagramBB    A chord diagramA augmentedA A chord diagramE MajorE
   And you're mine



e---------------------------------------------------------
b---------------------------------------------------------
g---------------------------------------------------------
d---------------------------------------------------------
a---5-7----5---5-7----5---5-7-7s10-9-10-9-5-5-7--
e-----------7-------------7-------------------------------
    ^

Other versions of Firepile

FirepileChords

Almost there ...

Sign in to get your own page with links to favourite songs and more. You are just one click away...

Login with Facebook Login with Google