Log in

One click and you are in

Login with Facebook Login with Google

Why sign up and log in

Guitar Tabs Explorer
Jimi Hendrix chords for Firepile

Guitar chords

<Define Chords:>

     A chord diagramE MajorE        A chord diagramA augmentedA        A chord diagramBB
e|-------|----5---|----7---|
A chord diagramBB|-------|----5---|----7---|
A chord diagramG+G|---1---|----6---|----8---|
A chord diagramD MajorD|---2---|----7---|----9---|
A chord diagramA augmentedA|---2---|----7---|----9---|
A chord diagramE MajorE|-------|----5---|----7---|
intro:

A chord diagramE MajorE A chord diagramA augmentedA A chord diagramBB A chord diagramA augmentedA

A chord diagramE MajorE
   This is him...
A chord diagramA augmentedA  A chord diagramBB  A chord diagramA augmentedA  A chord diagramE MajorE  A chord diagramA augmentedA  A chord diagramBB  A chord diagramA augmentedA

A chord diagramE MajorE               A chord diagramA augmentedA   A chord diagramBB   A chord diagramA augmentedA
Call him tied...
A chord diagramE MajorE     A chord diagramA augmentedA      A chord diagramBB
A chord diagramA augmentedA     A chord diagramE MajorE
A chord diagramA augmentedA     A chord diagramBB      A chord diagramA augmentedA
A chord diagramE MajorE     A chord diagramA augmentedA      A chord diagramBB     A chord diagramA augmentedA

         A chord diagramE MajorE
Don't give away...
A chord diagramA augmentedA
A chord diagramBB     A chord diagramA augmentedA
A chord diagramE MajorE     A chord diagramA augmentedA
A chord diagramBB     A chord diagramA augmentedA

A chord diagramE MajorE
The sidewalk's...
A chord diagramA augmentedA     A chord diagramBB      A chord diagramA augmentedA
A chord diagramE MajorE
A chord diagramA augmentedA     A chord diagramBB      A chord diagramA augmentedA     A chord diagramE MajorE     A chord diagramA augmentedA
A chord diagramBB     A chord diagramA augmentedA      A chord diagramE MajorE

<solo>
e-------------------------------------------------------
b-------------------------------------------------------
g-------------------------------------------------------
d-------------------------------------------------------
a--7---<keep picking this note for 4 bars - in 1/16th's>
e-------------------------------------------------------

e||-----------------------------------------------------
b||-----------------------------------------------------
g||.----------------------------------------------------
d||.----------------------------------------------------
a||-----------------------------------------------------
e||------0-3-0-3-3s5-----0-0-0-3s12-12------------------

e------------------------------------------------------|
b------------------------------------------------------|
g-----------------------------------------------------.|
d-----------------------------------------------------.|
a-----------0-2-2-2s10-12-12-10-7-----<repeat twice>---|
e---0-3-0-3--------------------------------------------|

e-------------------------------------------------------
b-------------------------------------------------------
g----------------------------------------------1--------
d------5-------5-5-7-7-9-9-7-5s2--2s9-7-5------2--------
a--7-7---7---7----------------------------5----2--------
e-------------------------------------------------------

A chord diagramE MajorE             A chord diagramA augmentedA
Your baby's...
A chord diagramBB       A chord diagramA augmentedA       A chord diagramE MajorE
A chord diagramA augmentedA
A chord diagramBB       A chord diagramA augmentedA       A chord diagramE MajorE       A chord diagramA augmentedA
A chord diagramBB       A chord diagramA augmentedA       A chord diagramE MajorE       A chord diagramA augmentedA
A chord diagramBB       A chord diagramA augmentedA       A chord diagramE MajorE

<outro>

<repeat 3x>
e---------------------------------------------------------
b---------------------------------------------------------
g---------------------------------------------------------
d---------------------------------------------------------
a--<7>-5-7----5--<7>-5-7----5--<7>-5-7-7s10-9-10-9-5-5-7--
e-----------7-------------7-------------------------------
    ^
    <play this note a couple of time - really fast

Other versions of Firepile

FirepileTabs

Almost there ...

Sign in to get your own page with links to favourite songs and more. You are just one click away...

Login with Facebook Login with Google