Log in

One click and you are in

Login with Facebook Login with Google

Why sign up and log in

Guitar Tabs Explorer
Jimi Hendrix tabs for Fire

Guitar tabs

e---------------------------------------------------------------
b---------------------------------------------------------------
g------13--12----/12--------------------------------------------------
d---------------------12--12----------------------------------------
a------11--10----/10-------------------------------------------------
E---------------------10--10--------------------------------------
 play that 2x's

e------------------------------------
b-------------------------------------
g---------------------------------------
d--------10-12-12---------------------------
a-----12---------------------------------
E-----------------------------------------
play that acouole of times

  Thats all I have now ill tab the chorus and the solo some other time
untill then. peace man

Other versions of Fire

FirepileChords
Fire1Tabs
FirepileTabs

Almost there ...

Sign in to get your own page with links to favourite songs and more. You are just one click away...

Login with Facebook Login with Google