Log in

One click and you are in

Login with Facebook Login with Google

Why sign up and log in

Guitar Tabs Explorer
Jimi Hendrix tabs for Ezy rider

Guitar tabs with lyrics

Mxtabs [http://www.mxtabs.net]
Band: Jimi Hendrix

This is only the main riff for the song but there are chords that
are used in the song has a jazzy bass line over the top, so hopefully
of I will work it out and update it.

E------------------------------------------------------------
B-11bu---9----11---9-----------------------------------------
G-----------------------11-----------------------------------
D-----------------------------8------------------------------
A------------------------------------------------------------
e------------------------------------------------------------
E---------------------------------11-------------------------
B-11bu---9----11---9-----------------------------------------
G-----------------------11-----------------------------------
D-----------------------------8------------------------------
A------------------------------------------------------------
e------------------------------------------------------------


There goes Ezy
Ezy Ryder
Ridin down the highway of desire
He says the free wind
takes him higher
Tryin to find his heaven above
but he's dyin to be loved

*note: I'm not exactly sure about these next 2 lines*

He's tellin me livin
is so magic
Something is forever
so he claims
He's talkin' bout lyin
it's so tragic baby
But don't you worry bout today
we got freedom comin' our way

Solo

How long
do you
think he is gonna last
carryin' out on a gas ( )

See all the others say
"do what you please"
Gotta get the brothers together
and the right to be free
In a cloud of angel dust
I think I see me a freak
Hey motorcycle mama
you gonna marry me? ha,ha


Bridge:
I'll be stone crazy
love comin in at you
Stone crazy baby


Solo

Repeat first verse


This is my first tab I have submitted and not the last.


Enjoy.

Max Keys

Other versions of Ezy Rider

Ezy riderChords

Almost there ...

Sign in to get your own page with links to favourite songs and more. You are just one click away...

Login with Facebook Login with Google