Log in

One click and you are in

Login with Facebook Login with Google

Why sign up and log in

Guitar Tabs Explorer
Jimi Hendrix tabs for Crosstown traffic

Guitar tabs

"CROSSTOWN TRAFFIC" ALA JIMI HENDRIX
TRANSCRIPTION BY JUSTIN CRUICKSHANK c9705480@engmail.newcastle.edu.au


INTRO/MAIN RIFF

E--------------------------------------------|--------------------------
B------------11------------------------------|--------------------------
G--------/12----12p10----10--8---------------|--------------------------
D-10-10---------------10---------------------|--------------------------
A-10-10-----------------------------8--------|8-8--8-8--8-8--8-8--8--8--
E--8--8------------------------8h11---11p8-6-|6-6--6-6--6-6--6-6--6--6--
E----------------------------
B----------------------------
G-8-8--8-8--8-8--8-8--8------
D------------------------10\-
A----------------------------
E----------------------------


VERSE
                                         x2
A chord diagramE MajorE|| ------------------|------------------- ||----------------------|
A chord diagramBB|| --4--4------------|------------------- ||----------------------|
A chord diagramG+G||.--3--3------------|-2--2--------------.||----------------------|
A chord diagramD MajorD||.--2--2------------|-1--1--------------.||-6--6-----------------|
A chord diagramA augmentedA|| --3--3------------|-3--3-------------- ||-8--8-----------------|
A chord diagramE MajorE|| ------------------|-1--1-------------- ||-6--6-----------------|

E-------------------|----------------------|------------------------|
B-------------------|----------------------|------------------------|
G-8--8--------------|----------------------|------------------------|
D-8--8--------------|-4--4-----------------|-3--3-------------------|
A-6--6--------------|-6--6-----------------|-5--5-------------------|
E-------------------|-4--4-----------------|-3--3-------------------|

E-------------------------------------
B-11-11--11-11--11-11--11-11--11--11\-
G-------------------------------------
D-------------------------------------
A-------------------------------------
E-------------------------------------


CHORUS BASE ON MAIN RIFF...I AIN'T Y'MUM, YOU CAN FIGURE IT OUT

INTERLUDE

E---------------------------|---------------------------------|
B------------------8--------|---------------------------------|
G-------/10--10------10-----|-------5b(6)--5b(6)--5b(6)r5p3p0-|
D-5--5------------------10\-|-5--5----------------------------|
A-5--5----------------------|-5--5----------------------------|
E-3--3----------------------|-3--3----------------------------|


                              >hold bend<
E---------------------------------------------------------
B---------------------------------------------------------
G-------10b(12)--10b(12)-----10b(12)-(12)--10--8----------
D-5--5-------------------------------------------10--8h10-
A-5--5----------------------------------------------------
E-3--3----------------------------------------------------

Other versions of Crosstown Traffic

Crosstown trafficChords

Almost there ...

Sign in to get your own page with links to favourite songs and more. You are just one click away...

Login with Facebook Login with Google