Log in

One click and you are in

Login with Facebook Login with Google

Why sign up and log in

Guitar Tabs Explorer
Jimi Hendrix tabs for Cocaine

Intro

Riff 1

e----------------------------------------------
B----------------------------------------------
G----------------------------------------------x2
D-12-12-10-12---7-6-5--------------------------
A-----------------------5-8-5------------------
E----------------------------------------------

then change distortion and...
riff 2

e----------------------------------------------
B----------------------------------------------
G-12-12-10-12---7-6-5--------------------------x6
D-12-12-10-12---7-6-5--12-14-12----------------
A----------------------12-14-12----------------
E----------------------------------------------


riff 3

e----------------------------------------------
B-12-12-10-12---7-6-5--------------------------
G-12-12-10-12---7-6-5--5-8-5-------------------x2
D----------------------5-8-5-------------------
A----------------------------------------------
E----------------------------------------------

then riff 2 again twice

then the Chorus...

e----------------------------------------------
B----------------------------------------------
G----------------------------------------------
D----------------------------------------------x4
A--0---0-0---2---0-----------------------------
E----------------------------------------------

then the song continues till the solo...

Solo


Solo
              ~	~              ~      ~
e-------------7---------------------------------------------------------------
B-9b-9b--8-9b----9b-9b--8-10--------------------------------------------------
G----------------------------------9brp7-9-7-9b-7--------7h9-9br9br9-7h9p7----
D---------------------------------------------------7h9-----------------------

		  ~
e-----------------------------------------------------------------------------
B-----------------------------------------------------------------------------
G-11b-11b-11b-11b-12--10-----10b---------9b-------7h9---9b------7h9-9b--10b-9b
D-------------------------12------10-12-------7h9------------7h9--------------	             ~
 ~	           ~	  ~
e-------------------------------------------------x-10---------------8--------8---
B-----------------8b-7----7----7----------7------------7---7---9b----9--7----7--9b-
G--7-9--7h9p7---------7---------7---7-------------------7-----------------8-------
D---------------------------------9----------------------------------------------

      ~	 	         ~				   ~
e-----------10------------------------------7h9p7h10p7----------------8-----10b-
B--7----9b-----9-9p7---7--------7--9--9b---------------7-9--7h9p7--9b----10------
G----8----------------8----8-------------------------------------------------------
D------------------------------------------------------------------------------
		     ~			   ~    ~
e-13--10p8--------------------------------------------------------------------------
B------------10--9b--7-------------------------------------------------------------
G------------------------11--8-11---12b--12p10-----10------------------------------
D----------------------------------------------12------12------------------------


Any doubt just mail me at ptm__947@hotmail.com

Perdinho ;)

Almost there ...

Sign in to get your own page with links to favourite songs and more. You are just one click away...

Login with Facebook Login with Google