Log in

One click and you are in

Login with Facebook Login with Google

Why sign up and log in

Guitar Tabs Explorer
Jimi Hendrix tabs for American woman

Guitar tabs

v= vibrato
s= slide to
b= bend
2 guitars play in this song get a freind to rock the other one
First guitar:

main riff -listen to song for timing and to tell how many times to play it and when
e----------------------------------------------- B--4--7--9-9-9-9-9--7-9-9-9--4--7-9-9-9-9-9--7-9
G--4--7--9-9-9-9-9--7-9-9-9--4--7-9-9-9-9-9--7-9
D--4--7--9-9-9-9-9--7-9-9-9--4--7-9-9-9-9-9--7-9
A--2--5--7-7-7-7-7--5-7-7-7--2--5-7-7-7-7-7--5-7
E------------------------------------------------
second guitar:
play through the whole song its simple:
B-----------------------5b-----------------------
A----5-7-7-7-7-7-5-7-7--------5-7-7-7-7-7-5-7----
E--7------------------------7--------------------

1st solo:
small one but make sure you vibrate really good
e------------------------------------16---------
B-------------------12v--15------------12-14s15v
G--9-11-11s13v-13s14---------12s13v-------------
D--------------------------14-------------------
A-----------------------------------------------
E-----------------------------------------------

there is another solo but icant find it anywhere bbut this is most of the song.

Almost there ...

Sign in to get your own page with links to favourite songs and more. You are just one click away...

Login with Facebook Login with Google