GuitarTabsExplorer icon
GuitarTabsExplorer icon

Log in

Songbook

  • Log in to add and see bookmarks

Last visited songs

  • No songs visited yet...
51st Anniversary  by Jimi Hendrix

51st Anniversary bass tab by Jimi Hendrix

Bass tabs (Ver. 2)

Tuning: Half-Step Down (D# G# C# F#)

Key: Bm

Difficulty: Intermediate

Gtr I (Eb Ab Db Gb) - 'Noel Redding - Bass (1/2 step down: Eb Ab Db Gb)'

 Intro:
 Q=126
 4/4
 Gtr I (1/2step down - Eb Ab Db Gb)
   E. S E. S E. S E. S  E. S E. S E. S E. S
Gb|-------------------------|-------------------------|
Db|-------------------------|-------------------------|
Ab|-14----14----14----14----|-14----14----14----14----|
Eb|-------------------------|-------------------------|
   E. S E. S E. S E. S  E. S E. S E. S E. S
Gb|-------------------------|-------------------------|
Db|-------------------------|-------------------------|
Ab|-14----14----14----14----|-14----14----14----14----|
Eb|-------------------------|-------------------------|


   S E. Q  +E  E E E  E E E E +E  S S E S S
Gb|--------14--(14)-------14-|-16-14------------------14-----||
Db|-14h16-----------14h16----|-------16-14-(14)-14h16--------||
Ab|--------------------------|---------------------------0-0-||
Eb|--------------------------|-------------------------------||


 1st Verse:
  E E E E +E E E E  +E E E E +E Q E
Gb|-------------------|---------------------|
Db|-----------------2-|-(2)-2-2-------------|
Ab|-2-2-2-0-(0)-0-----|---------------------|
Eb|---------------3---|---------3-(3)-2--3--|


  E E E E +E E E E  +E E E E +E Q E
Gb|-------------------|--------------------|
Db|-----------------2-|-(2)-2-2------------|
Ab|-2-2-2-0-(0)-0-----|--------------------|
Eb|---------------3---|---------3-(3)-2--3-|


  E E E E +E E E E  +E E E E +E Q E
Gb|-------------------|---------------------|
Db|-----------------2-|-(2)-2-2-------------|
Ab|-2-2-2-0-(0)-0-----|---------------------|
Eb|---------------3---|---------3-(3)-2--3--|
  E E E E +E E E E  +E E E E +E Q E
Gb|-------------------|--------------------|
Db|-----------------2-|-(2)-2-2------------|
Ab|-2-2-2-0-(0)-0-----|--------------------|
Eb|---------------3---|---------3-(3)-2--3-|


  E E E E +E E E E  +E E E E E E E E
Gb|-------------------|--------------------|
Db|-------------------|--------------------|
Ab|---4-7-------2-5---|--------------------|
Eb|-5-----3-(3)-----0-|-(0)-0-0-0-0-0-2-3--|


  E E E E +E E E E  +E E E E +E Q E
Gb|-------------------|--------------------||
Db|-----------------2-|-(2)-2-2------------||
Ab|-2-2-2-0-(0)-0-----|--------------------||
Eb|---------------3---|---------3-(3)-2--3-||


 2nd Verse:
  E E E E +E E E E  +E E E E +E Q E
Gb|-------------------|---------------------|
Db|-----------------2-|-(2)-2-2-------------|
Ab|-2-2-2-0-(0)-0-----|---------------------|
Eb|---------------3---|---------3-(3)-2--3--|


  E E E E +E E E E  +E E E E +E Q E
Gb|-------------------|--------------------|
Db|-----------------2-|-(2)-2-2------------|
Ab|-2-2-2-0-(0)-0-----|--------------------|
Eb|---------------3---|---------3-(3)-2--3-|


  E E E E +E T S. E E  +E E E E E E E E
Gb|----------------------|-------------------|
Db|----------------------|-------------------|
Ab|---4-7------------5---|-------------------|
Eb|-5-----3-(3)-5s7----0-|-(0)-0-0-0-0-0-2-3-|


  E E E E +E E E E  +E E E E +E Q E
Gb|-------------------|--------------------||
Db|-----------------2-|-(2)-2-2------------||
Ab|-2-2-2-0-(0)-0-----|--------------------||
Eb|---------------3---|---------3-(3)-2--3-||


 3rd Verse:
  E E E E +E E E E  +E E E E +E Q E
Gb|-------------------|---------------------|
Db|-----------------2-|-(2)-2-2-------------|
Ab|-2-2-2-0-(0)-0-----|---------------------|
Eb|---------------3---|---------3-(3)-2--3--|


  E E E E +E E E E  +E E E E +E Q E
Gb|-------------------|--------------------|
Db|-----------------2-|-(2)-2-2------------|
Ab|-2-2-2-0-(0)-0-----|--------------------|
Eb|---------------3---|---------3-(3)-2--3-|


  E E E E +E E E E  +E E E E E E E E
Gb|-------------------|--------------------|
Db|-------------------|--------------------|
Ab|---4-7-------2-5---|--------------------|
Eb|-5-----3-(3)-----0-|-(0)-0-0-0-0-0-2-3--|


                  Bridge:
  E E E E Q Q  +H.   E. S  E. S E. S E. S E. S  E. S E. S E. S E. S
Gb|---------------|---------------||---------------------|----------------------|
Db|------------5--|-(5)------4----||---------------------|----------------------|
Ab|-2-2---5-------|---------------||-2----2----2----2----|-2----2----2----2-----|
Eb|---------------|---------------||---------------------|----------------------|


  E. S E. S E. S E. S  E. S E. S E. S E. S
Gb|---------------------|---------------------|
Db|---------------------|---------------------|
Ab|-2----2----2----2----|-2----2----2----2----|
Eb|---------------------|---------------------|


  E. S E. S E. S E. S  E. S E. S E. S E. S
Gb|---------------------|----------------------|
Db|---------------------|----------------------|
Ab|-2----2----2----2----|-2----2----2----2-----|
Eb|---------------------|----------------------|


  Q E E +H    +W      +W      +W
Gb|---------------|------------|------------|--------|
Db|------2-(2)----|-(2)--------|-(2)--------|-(2)----|
Ab|-2-------------|------------|------------|--------|
Eb|---------------|------------|------------|--------|


  E E E E +E E E E  +E E E E +E Q E
Gb|-------------------|--------------------||
Db|-----------------2-|-(2)-2-2------------||
Ab|-2-2-2-0-(0)-0-----|--------------------||
Eb|---------------3---|---------3-(3)-2--3-||


 4th Verse:
  E E E E +E E E E  +E E E E +E Q E
Gb|-------------------|---------------------|
Db|-----------------2-|-(2)-2-2-------------|
Ab|-2-2-2-0-(0)-0-----|---------------------|
Eb|---------------3---|---------3-(3)-2--3--|


  E E E E +E E E E  +E E E E +E Q E
Gb|-------------------|--------------------|
Db|-----------------2-|-(2)-2-2------------|
Ab|-2-2-2-0-(0)-0-----|--------------------|
Eb|---------------3---|---------3-(3)-2--3-|


  E E E E +E E E E  +E E E E +E Q E
Gb|-------------------|---------------------|
Db|-----------------2-|-(2)-2-2-------------|
Ab|-2-2-2-0-(0)-0-----|---------------------|
Eb|---------------3---|---------3-(3)-2--3--|


  E E E E +E E E E  +E E E E E E E E
Gb|-------------------|-------------------|
Db|-------------------|-------------------|
Ab|---4-7-------2-5---|-----------------0-|
Eb|-5-----3-(3)-----0-|-(0)-0-3-0-3-0-3---|


  E E E E +E E E E  +E E E E +E Q E
Gb|-------------------|---------------------||
Db|-----------------2-|-(2)-2-2-------------||
Ab|-2-2-2-0-(0)-0-----|---------------------||
Eb|---------------3---|---------3-(3)-2--3--||


 5th Verse:
  E E E E +E E E E  +E E E E +E Q E
Gb|-------------------|--------------------|
Db|-----------------2-|-(2)-2-2------------|
Ab|-2-2-2-0-(0)-0-----|--------------------|
Eb|---------------3---|---------3-(3)-2--3-|


  E E E E +E E E E  +E E E E +E Q E
Gb|-------------------|---------------------|
Db|-----------------2-|-(2)-2-2-------------|
Ab|-2-2-2-0-(0)-0-----|---------------------|
Eb|---------------3---|---------3-(3)-2--3--|


  E E E E +E E E E  +E E E E E E E E
Gb|-------------------|-------------------|
Db|-------------------|-------------------|
Ab|---4-7-------2-5---|-----------------0-|
Eb|-5-----3-(3)-----0-|-(0)-0-3-0-2h3-3---|


  E E E E +E E E E  +E E E E +E Q E
Gb|-------------------|---------------------||
Db|-----------------2-|-(2)-2-2-------------||
Ab|-2-2-2-0-(0)-0-----|---------------------||
Eb|---------------3---|---------3-(3)-2--3--||


 6th Verse:
  E E E E +E E E E  +E E E E +E Q E
Gb|-------------------|--------------------|
Db|-----------------2-|-(2)-2-2------------|
Ab|-2-2-2-0-(0)-0-----|--------------------|
Eb|---------------3---|---------3-(3)-2--3-|


  E E E E +E E E E  +E E E E +E Q E
Gb|-------------------|---------------------|
Db|-----------------2-|-(2)-2-2-------------|
Ab|-2-2-2-0-(0)-0-----|---------------------|
Eb|---------------3---|---------3-(3)-2--3--|


  E E E E +E E E E  +E E E E E E E E  Q E E Q Q  +H.   Q
Gb|-------------------|-------------------|--------------|--------------||
Db|-------------------|-------------------|-----------5--|-(5)------4---||
Ab|---4-7-------2-5---|-----------------0-|-2----5-------|--------------||
Eb|-5-----3-(3)-----0-|-(0)-0-0-0-3-0-3---|--------------|--------------||


 Bridge:
   E. S E. S E. S E. S  E. S E. S E. S E. S 6x
Gb||----------------------|----------------------||
Db||o---------------------|---------------------o||
Ab||o-2----2----2----2----|-2----2----2----2----o||
Eb||----------------------|--------------------- ||


  E. S E. S E. S E. S  E E E E E E E E  Q E E +H    +W
Gb|---------------------|-----------------|---------------|--------||
Db|---------------------|-----------------|------2-(2)----|-(2)----||
Ab|-2----2----2----2----|-2-0-2-0-2-0-2-0-|-2-------------|--------||
Eb|---------------------|-----------------|---------------|--------||


 Outro:
  +W      +W      E E E E +E E E E  +E E E E +E Q E
Gb|------------|------------|-------------------|---------------------|
Db|-(2)--------|-(2)--------|-----------------2-|-(2)-2-2-------------|
Ab|------------|------------|-2-2-2-0-(0)-0-----|---------------------|
Eb|------------|------------|---------------3---|---------3-(3)-2--3--|


  E E E E +E E E E  +E E E E +E Q E
Gb|-------------------|--------------------|
Db|-----------------2-|-(2)-2-2------------|
Ab|-2-2-2-0-(0)-0-----|--------------------|
Eb|---------------3---|---------3-(3)-2--3-|


  E E E E +E E E E  +E E E E +E Q E
Gb|-------------------|---------------------|
Db|-----------------2-|-(2)-2-2-------------|
Ab|-2-2-2-0-(0)-0-2---|---------------------|
Eb|-------------------|---------3-(3)-2--3--|


  E E E E +E E E E  +E E E E +E Q E
Gb|-------------------|--------------------|
Db|-----------------2-|-(2)-2-2------------|
Ab|-2-2-2-0-(0)-0-----|--------------------|
Eb|---------------3---|---------3-(3)-2--3-|


  E E E E +E E E E  +E E E E +E Q E
Gb|-------------------|---------------------|
Db|-----------------2-|-(2)-2-2-------------|
Ab|-2-2-2-0-(0)-0-----|---------------------|
Eb|---------------3---|---------3-(3)-2--3--|


  E E E E Q Q  +H.   Q  E E E E Q Q  +Q  E E E E E E
Gb|---------------|-------------|---------------|--------7---7---7--|
Db|------------5--|-(5)---------|------------5--|-(5)--5---5---5----|
Ab|-2-2---5-------|-------------|-2-2---5-------|-------------------|
Eb|---------------|-------------|---------------|-------------------|


  E E E E E E E E  E E E E E E E E  E E E E E E E E  E E E E E E E E
Gb|---7---7---7---7-|---7---7---7---7-|---7---7---7---7-|---7---7---7---7--|
Db|-5---5---5---5---|-5---5---5---5---|-5---5---5---5---|-5---5---5---5----|
Ab|-----------------|-----------------|-----------------|------------------|
Eb|-----------------|-----------------|-----------------|------------------|


  E E E E E E E E  E E E E E E E E  E E E E E E E E  E E E E E E E E
Gb|---7---7---7---7-|---7---7---7---7-|---7---7---7---7-|---7---7---7---7--*|
Db|-5---5---5---5---|-5---5---5---5---|-5---5---5---5---|-5---5---5---5----*|
Ab|-----------------|-----------------|-----------------|------------------*|
Eb|-----------------|-----------------|-----------------|------------------*|

************************************
Duration 🏷Legend

W - whole; H - half; Q - quarter; E - 8th; S - 16th; a - acciaccatura;
+ - note tied to previous; . - note dotted;
Duration letters will always appear directly above the note/fret number it represents the
duration for. Duration letters with no fret number below them represent rests.
Uncapitalized letters represent notes that are staccato (1/2 duration).

| (n) - note tied to previous
**************************************

Other versions of 51st Anniversary

Alternative guitar chords and tabs for 51st Anniversary by Jimi Hendrix

VersionType
51st anniversaryBass tabs

[ Privacy | About us ]

Welcome to the guitar community

Why join and log in?
- Get songbook with favourite songs
- Get custom made front page
- Submit chords and tabs
- Submit guitar-cover videos
- Get a lot of thumbs up for your work

Songbook

Last visited songs

Site
Home
Search
Community
Submit chords

Video

No video for this page. Check out how you can submit guitar-cover videos here

Search tabs and chords

Browse by artist

A B C D E F G H I J K L M N O P Q R S T U V W X Y Z #


Menu

Search

Video

Bookmark

Login