Search tabs and chords

Browse bands and artists

A B C D E F G H I J K L M N O P Q R S T U V W X Y Z #

Log in

[ Register here | Forgot password ]

Guitar Tabs Explorer
Print

Jingle Bell Rock bass tab by Bobby Helms

Bass tabs

-----------------------------------------------------------------------------
                       JINGLE BELL ROCK - Bobby Helms
-----------------------------------------------------------------------------
Tuning: E A D G

s = sixteenth note


INTRO    x3
|----------|--------|
|:--------:|-75-4---|
|:--------:|------7-|
|----------|--------|


VERSE 1                                            ssss         ss
|--------|--------|--------|--------|--------|----------|----4----|--------|
|----4-7-|----4-7-|--------|----7--7|----7--7|----7-77-7|------5-7|-75-4---|
|5--5----|5--5----|5--56--6|7--7----|7--7----|7--7------|7--7-----|------7-|
|--------|--------|--------|--------|--------|----------|---------|--------|

                                                   ssss
|--------|--------|--------|--------|--------|----------|--------|--------|
|----4-7-|----4-7-|--------|----7--7|----7--7|----7-77-7|----7---|------4-|
|5--5----|5--5----|5--56--6|7--7----|7--7----|7--7------|7--7--4-|5-5-7---|
|--------|--------|--------|--------|--------|----------|--------|--------|


Prechorus
|----4---|----4---|--------|--------|--------|--------|--------|--------|
|5--7----|6--7----|----4-7-|----4-7-|----6-9-|----6-9-|7-------|-75-4---|
|--------|--------|5--5----|5--5----|7--7----|7--7----|--------|------7-|
|--------|--------|--------|--------|--------|--------|--------|--------|

CHORUS                                             ssss       ssss
|--------|--------|--------|--------|--------|----------|----------|--------|
|----4-7-|----4-7-|--------|--------|5--5--57|5---5-55-5|----7-77-7|--5-4---|
|5--5----|5--5----|5--54-3-|2--32-5-|----5---|---5------|7--7------|5-----7-|
|--------|--------|--------|--------|--------|----------|----------|--------|


SOLO                             ssss                ssss
|--------|--------|--------|----------|--------|----------|--------|--------|
|----4-7-|----4-7-|--------|----7-77-7|----7--7|----7-77-7|----7---|------4-|
|5--5----|5--5----|5--56--6|7--7------|7--7----|7--7------|7--7--4-|5-5-7---|
|--------|--------|--------|----------|--------|----------|--------|--------|


Prechorus
|----4---|----4---|--------|--------|--------|--------|--------|--------|
|5--7----|6--7----|----4-7-|----4-7-|----6-9-|----6-9-|7-------|-75-4---|
|--------|--------|5--5----|5--5----|7--7----|7--7----|--------|------7-|
|--------|--------|--------|--------|--------|--------|--------|--------|


OUTRO CHORUS                                       ssss                ssss
|--------|--------|--------|--------|--------|----------|--------|----------|
|----4-7-|----4-7-|--------|--------|5--5--57|5---5-55-5|----7--7|----7-77-7|
|5--5----|5--5----|5--54-3-|2--32-5-|----5---|---5------|7--7----|7--7------|
|--------|--------|--------|--------|--------|----------|--------|----------|

               ss ss  ss
|--------|----------|---------|--------|
|----7---|---------7|5--------|--------|
|7--7--0-|5---5-55--|--575--5~|~~~~~~~~|
|--------|----------|---------|--------|

Comments