Log in

One click and you are in

Login with Facebook Login with Google

Why sign up and log in

Guitar Tabs Explorer
Helmet tabs for Wilmas rainbow

Guitar tabs

Wilma's Rainbow
			   by Helmet

	I know that this has already been posted, but it didn't sound
right at all.  Mine could still use some work on the Intro and
the Chorus though, send me any suggestions.

Dropped A chord diagramD MajorD Tuning
Intro:   G--------------------
	 D--17~~--------------
	 A------17---15~~~~~--    play 7 times, slow down
	 D--------------------    on the last two

1st Riff:

G--------------------------
D--0----0--3\5---0--3-0-3--
A--0----0--3\5---0--3-0-3--      play 6 times
D--0----0--3\5---0--3-0-3--


Main Riff:

G-----------------------------------------
D--3-0-3----33-0-3----33-0-3----33-0-3\5--
A--3-0-3----33-0-3----33-0-3----33-0-3\5--
D--3-0-3----33-0-3----33-0-3----33-0-3\5--
pm          ^         ^         ^
					       play 3 times
G-----------------------------------------
D--3-0-3----33-0-3----33-0-3\5---0\3\5/3--
A--3-0-3----33-0-3----33-0-3\5---0\3\5/3--
D--3-0-3----33-0-3----33-0-3\5---0\3\5/3--
pm         ^         ^

Chorus:    G------------------------------
	   D--0-0-0-0--3-3-3-3--6-6-6--5-5     repeat 2 times from -3-
	   A--0-0-0-0--3-3-3-3--6-6-6--5-5                         -3-
	   D--0-0-0-0--3-3-3-3--6-6-6--5-5                         -3-

Then play the 1st half of the 1st riff,
followed by:

D---00-3---00-3---00-3---00--3---00--3
A---00-3---00-3---00-3---00--3---00--3
D---00-3---00-3---00-3---00--3---00--3
pm  ^^     ^^     ^^     ^^      ^^

Then play the 1st half of the riff after
the intro 6 times

The Chorus 3 times

Play 1st half of first riff until the end of song




Here are my suggestions:


Intro:

E-|---------7----------|
B-|---------7----------|
G-|---------6----------|
D-|--------------------|
A-|--------------------|
E-|-<6>--0-------------


Chorus:


E-|------------|-----------------|------------|---------------|
B-|------------|-----------------|------------|---------------|
G-|------------|-----------------|------------|---------------|
D-|-0----3---1-|----1--4-4-4-4-0-|-0----3---1-|---1--6-6-0-6--|
A-|-0----3---1-|----1--4-4-4-4-0-|-0----3---1-|---1--6-6-0-6--|
E-|-0----3---1-|----1--4-4-4-4-0-|-0----3---1-|---1--6-6-0-6--|


E-|------------|-----------------|
B-|------------|-----------------|
G-|------------|-----------------|
D-|-0----3---1-|-----1--4-4-4-4-3|
A-|-0----3---1-|-----1--4-4-4-4-3|
E-|-0----3---1-|-----1--4-4-4-4-3|

Other versions of Wilmas Rainbow

Wilmas rainbowChords

Almost there ...

Sign in to get your own page with links to favourite songs and more. You are just one click away...

Login with Facebook Login with Google