Log in

One click and you are in

Login with Facebook Login with Google

Why sign up and log in

Guitar Tabs Explorer
Helmet tabs for Speechless

Guitar tabs

Title: Speechless
Album: Betty

detune strings 1-5 one half step
detune string 6 one and one half steps

| - repeat chord
p - palm mute
/// - tremolo pick, pick as fast and continuously as possible
% - rest
/ - slide up
\ - slide down

  intro

3------------7----------------------5-----------------------------------------
4-0----6--5--4----------------------3-----------------------------------------
5-0----6--5--4---|--|---|--|--|--|--3---|--|---|--|---|--|--|--|--|--|--|--|--
6-0----6--5--4----------------------3-----------------------------------------

  verse
                                   p p  p  p  p
3----------------2--1h2-------------------------2--1h2--
4-1------1-------0--0---1------1---1-1--1--1--1-0--0----
5-1---%--1---%---0--0---1---%--1---1-1--1--1--1-0--0----
6-1------1-------0--0---1------1---1-1--1--1--1-0--0----

  fill 1

2-------------6-----------------4-----------------------
3-------------5-----------------3-----------------------
4-0-1-1-3-4---4--|--|--|--|--|--2--|--|--|--|--|--|--|--
5-0-1-1-3-4---4-----------------2-----------------------
6-0-1-1-3-4---4-----------------2-----------------------

  fill 2

2-------------6-------------------------8------
3-------------5-------------------------7------
4-0-1-1-3-4---4--|--|--|--|--|--0---0---6-///--
5-0-1-1-3-4---4-----------------0---0---6------
6-0-1-1-3-4---4-----------------0---0---6------

  chorus - listen to the recording for the rhythm

3-3---11---6---8--
4-3---11---6---8--
5-1-/-9--\-4-/-6--
6-1---9----4---6--

  bridge

3-10----------11----------13-----------15-----------
4-10----------11----------13-----------15-----------
5-8--|--|--|--9--|--|--|--11--|--|--|--13--|--|--|--
6-8-----------9-----------11-----------13-----------

3-10----------11----------6-----------8-----------
4-10----------11----------6-----------8-----------
5-8--|--|--|--9--|--|--|--4--|--|--|--6--|--|--|--
6-8-----------9-----------4-----------6-----------

3-10----------11----------13------------------------
4-10----------11----------13--------14--------------
5-8--|--|--|--9--|--|--|--11--|--|--11--|--|--|--|--
6-8-----------9-----------11--------11--------------

  solo riff

4-0--1--3---0---1-1-1-3--4--
5-0--1--3---0---1-1-1-3--4--
6-0--1--3---0---1-1-1-3--4--

  end on this chord

2-0--
3-0--
4-0--
5-0--

Other versions of Speechless

SpeechlessChords

Almost there ...

Sign in to get your own page with links to favourite songs and more. You are just one click away...

Login with Facebook Login with Google