Log in

One click and you are in

Login with Facebook Login with Google

Why sign up and log in

Guitar Tabs Explorer
Helmet chords for Diet aftertaste

Guitar chords

date: 25/11/97
transcriber: stephan jaensch
e-mail: jaensch@r5.mnd.fh-wiesbaden.de
artist: helmet
song: diet aftertaste
author: page hamilton
album: aftertaste

(3): played first and third time in second verse
 s : slide
INTRO
E--------------------------------------0-----------------------
B--------------------------------------0-----------------------
G--------------------------------------0-----------------------
D--3--0--12--0--3-3---3--0--12--0--3-3-0---3--0--12--0--3--3-3-
A--3--0--12--0--3-3---3--0--12--0--3-3-----3--0--12--0--3--3-3-
D--3--0--12--0--3-3---3--0--12--0--3-3-----3--0--12--0--3--3-3-

E------------------------------------------|
B------------------------------------------|
G-----------------8-8-8-8-8----------------|
D-3-3-3-3-3-3-8-8-8-8-8-8-8-6--6-6-6-6-5-0-|
A-3-3-3-3-3-3-8-8-----------6--6-6-6-6-5-0-|
D-3-3-3-3-3-3-8-8-----------6--6-6-6-6-5-0-|


VERSE
E--------------------------------------------------------------
B--------------------------------------------------------------
G----------------------------------------------------------(3)-
D-3---0------12---0-------3--3---------------3-0-12--0-3-3-(3)-
A-3---0------12---0-------3--3---------------3-0-12--0-3-3-----
D-3---0------12---0-------3--3---------------3-0-12--0-3-3-----

1.    you're ev - ry  - thing...
2.    you  speak  the...

E--------------------------------------------------------------
B--------------------------------------------------------------
G----------------------------------------8-8-8-8-8-------------
D--3--0---12---0--3-3-3-3-3-3-3-3--8-8---8-8-8-8-8-6-6-6-6-6-5-
A--3--0---12---0--3-3-3-3-3-3-3-3--8-8-------------6-6-6-6-6-5-
D--3--0---12---0--3-3-3-3-3-3-3-3--8-8-------------6-6-6-6-6-5-

1.    but then...
2.    or may - be just...

AFTER 1st VERSE
E------------------------------|
B------------------------------|
G------------------------------|
D-0--0--3--0--12--0--3-3---1-0-|
A-0--0--3--0--12--0--3-3---1-0-|
D-0--0--3--0--12--0--3-3---1-0-|

CHORUS (AFTER 2nd VERSE)
E------------------------------------|
B------------------------------------|
G------------------------------------|
D-0-10s12-0-12-12-10-0-3-3-3-5-5-5-3-|
A-0-10s12-0-12-12-10-0-3-3-3-5-5-5-3-|
D-0-10s12-0-12-12-10-0-3-3-3-5-5-5-3-|

    I'd    send...

THROUGHOUT SOLO
E---------------------------------------|
B---------------------------------------|
G---------------------------------------|
D--0--3-3-5-5-3-3-5--0--3-3-5-5-3-3-5-3-|
A--0--3-3-5-5-3-3-5--0--3-3-5-5-3-3-5-3-|
D--0--3-3-5-5-3-3-5--0--3-3-5-5-3-3-5-3-|


BRIDGE TO 2nd CHORUS (twice)
E------------------------------------------------|
B------------------------------------------------|
G------------------------------------------------|
D--7--7--7-7-7--7--7--7-7-3--3--3-3-3--3--3--3-3-|
A--7--7--7-7-7--7--7--7-7-3--3--3-3-3--3--3--3-3-|
D--7--7--7-7-7--7--7--7-7-3--3--3-3-3--3--3--3-3-|

so this is how i could work it out. if anyone has any
corrections, additions (especially the solo) please add
it to my tab or send it to me.

Almost there ...

Sign in to get your own page with links to favourite songs and more. You are just one click away...

Login with Facebook Login with Google