Log in

One click and you are in

Login with Facebook Login with Google

Why sign up and log in

Guitar Tabs Explorer
Helloween tabs for If i could fly

Guitar tabs

HELLOWEEN
IF I COULD FLY
the dark ride

tab simbols:
h:hammer on
~:vibrato
\or/:slide
pm------:palm mute

INTRO (piano) but you can play it with guitar
---8p7-----8p7------------------7-----8p7-----8p7-----------7---10h12h15-19----
-----------------------8------8----------------------8----8-------------0---1--3
--------9--------9---7------9--------------9-------7----9----------------------
-------------------------------------------------------------------------------
-------------------------------------------------------------------------------
-------------------------------------------------------------------------------
then piano and guitar come together:
-----------------------------------------p.m-----p.m-------
-----------------------------------------------------------
-----------------------------------------7-7--7--7-7--7----
--7--7-7-7-7---5--5-5-5-5---2--2-2-2-2---7-7--7--7-7--7----
--7--7-7-7-7---5--5-5-5-5---2--2-2-2-2---5-5--5--5-5--5----
--5--5-5-5-5---3--3-3-3-3----------------------------------
-----------------------------------------p.m-----p.m-----
---------------------------------------------------------
-----------------------------------------9-9--9--9-9--9--
--7--7-7-7-7---5--5-5-5-5---2--2-2-2-2---9-9--9--9-9--9--
--7--7-7-7-7---5--5-5-5-5---2--2-2-2-2---7-7--7--7-7--7--
--5--5-5-5-5---3--3-3-3-3--------------------------------

verse:
-----------------------------------------p.m-----p.m-----
---------------------------------------------------------
-----------------------------------------7-7--7--7-7--7--
--7--7-7-7-7---5--5-5-5-5---2--2-2-2-2---7-7--7--7-7--7--
--7--7-7-7-7---5--5-5-5-5---2--2-2-2-2---5-5--5--5-5--5--
--5--5-5-5-5---3--3-3-3-3--------------------------------
-----------------------------------------p.m-----p.m-----
---------------------------------------------------------
-----------------------------------------9-9--9--9-9--9--
--7--7-7-7-7---5--5-5-5-5---2--2-2-2-2---9-9--9--9-9--9--
--7--7-7-7-7---5--5-5-5-5---2--2-2-2-2---7-7--7--7-7--7--
--5--5-5-5-5---3--3-3-3-3--------------------------------
-----------------------------------------p.m-----p.m-------
-----------------------------------------------------------
-----------------------------------------7-7--7--7-7--7----
--7--7-7-7-7---5--5-5-5-5---2--2-2-2-2---7-7--7--7-7--7----
--7--7-7-7-7---5--5-5-5-5---2--2-2-2-2---5-5--5--5-5--5----
--5--5-5-5-5---3--3-3-3-3----------------------------------
-------------------------------------------
-------------------------------------------
--------------------------------------7-~~-
7--7-7-7-7---3--5-5-5-5---2--2-2-2-2--7-~~-
7--7-7-7-7---3--5-5-5-5---2--2-2-2-2--5-~~-
5--5-5-5-5---5--3-3-3-3--------------------

chorus 1:
-----------------------------------------p.m-----p.m-----
---------------------------------------------------------
-----------------------------------------7-7--7--7-7--7--
--7--7-7-7-7---5--5-5-5-5---2--2-2-2-2---7-7--7--7-7--7--
--7--7-7-7-7---5--5-5-5-5---2--2-2-2-2---5-5--5--5-5--5--
--5--5-5-5-5---3--3-3-3-3--------------------------------
-----------------------------------------p.m-----p.m-----
---------------------------------------------------------
-----------------------------------------9-9--9--9-9--9--
--7--7-7-7-7---5--5-5-5-5---2--2-2-2-2---9-9--9--9-9--9--
--7--7-7-7-7---5--5-5-5-5---2--2-2-2-2---7-7--7--7-7--7--
--5--5-5-5-5---3--3-3-3-3--------------------------------

chorus 2:
-----------------------------------------p.m-----p.m----
--------------------------------------------------------
-----------------------------------------7-7--7--7-7--7-
--7--7-7-7-7---5--5-5-5-5---2--2-2-2-2---7-7--7--7-7--7-
--7--7-7-7-7---5--5-5-5-5---2--2-2-2-2---5-5--5--5-5--5-
--5--5-5-5-5---3--3-3-3-3-------------------------------
-----------------------------------------p.m-----p.m----
--------------------------------------------------------
-----------------------------------------9-9--9--9-9--9-
--7--7-7-7-7---5--5-5-5-5---2--2-2-2-2---9-9--9--9-9--9-
--7--7-7-7-7---5--5-5-5-5---2--2-2-2-2---7-7--7--7-7--7-
--5--5-5-5-5---3--3-3-3-3-------------------------------
-----------------------------------------p.m-----p.m-------
-----------------------------------------------------------
-----------------------------------------7-7--7--7-7--7----
--7--7-7-7-7---5--5-5-5-5---2--2-2-2-2---7-7--7--7-7--7----
--7--7-7-7-7---5--5-5-5-5---2--2-2-2-2---5-5--5--5-5--5----
--5--5-5-5-5---3--3-3-3-3----------------------------------
------------------------------------------
------------------------------------------
--------------------------------------7-~~
7--7-7-7-7---3--5-5-5-5---2--2-2-2-2--7-~~
7--7-7-7-7---3--5-5-5-5---2--2-2-2-2--5-~~
5--5-5-5-5---5--3-3-3-3-------------------

Solo Chords:
e|-------------------------------------------------|
A chord diagramBB|-------------------------------------------------|
A chord diagramG+G|-------------------------------------------------|
A chord diagramD MajorD|--7-------7\5-3--------3/5-7-------7\5-3---------|
A chord diagramA augmentedA|--7-7-7-7-7\5-3-3-3-3--3/5-7-7-7-7-7\5-3-3-3-3---|
A chord diagramE MajorE|--5-5-5-5-5\3-1-1-1-1--1/3-5-5-5-5-5\3-1-1-1-1---|
e|----------------------------------------------------------|
A chord diagramBB|----------------------------------------------------------|
A chord diagramG+G|------------------------------------------------5-5--7-7--|
A chord diagramD MajorD|--7-------7\5-3--------3/5-7-------7\5-3--------5-5--7-7--|
A chord diagramA augmentedA|--7-7-7-7-7\5-3-3-3-3--3/5-7-7-7-7-7\5-3-3-3-3--3-3--5-5--|
A chord diagramE MajorE|--5-5-5-5-5\3-1-1-1-1--1/3-5-5-5-5-5\3-1-1-1-1------------|

solo: this solo i couldnt find it so i tab it I think that is correct.
let ring-----------------
---------12-15-19---------------
-------------------1---3--------
-----------------------------7--
-----------------------------5--
--------------------------------
--------------------------------
/full bend (7) /full bend(7) ¬ full bend(7)
---/----------------/---------------/-\------------------------
-8/---------------8/---------------/---\-----------------------
-7----------------7--------------7/----(7)----5---5-----7------
------------------------------------------------7----------7---
---------------------------------------------------------------
---------------------------------------------------------------
pm---- 1/4 pm-----------------
-------------/-----------------------------
------------/------------------------------
----------4/-------------------------------
----5--7-----------7-5---------------------
-----------------------7-6-5-3-------------
-------------------------------5--3-5--(5)-
---------------------------------------/15----------
10---8--6---6---5------5----------------------------
---9------9-------7--------7p5--7/------------------
----------------------------------------------------
----------------------------------------------------
----------------------------------------------------
----15-17-------------------------------
-----------15--(15)--15-17--------------
---------------------------14---(14)----
----------------------------------------
----------------------------------------
----------------------------------------
pm-------------------- /full
------8-------8-------8----------------------/----\------------
---10---10------10------10/-----\17-18-20-20/------\-(20)-(20)-
7---------9-------9--------/5\--------------------------------
---------------------------------------------------------------
---------------------------------------------------------------
---------------------------------------------------------------
"Bridge":
e|---------------------------|---------------------------|---------|
A chord diagramBB|---------------------------|---------------------------|---------|
A chord diagramG+G|---------------------------|---------------------------|---------|
A chord diagramD MajorD|--7~-5~---3~-----------5~--|--7~-5~---3~--7-9-10-9-5~--|--7~-5~--|
A chord diagramA augmentedA|--7~-5~---3~-3-3-3-3-3-5~--|--7~-5~---3~--7-9-10-9-5~--|--7~-5~--|
A chord diagramE MajorE|--5~-3~-0-1~-1-1-1-1-1-3~--|--5~-3~-0-1~--5-7-8--7-3~--|--5~-3~--|
pm-- pm---------- pm----
Song Sequence:
Piano Intro

Intro

Verse

Chorus 1

Verse

Chorus 2

Solo

Bridge

Chorus 1
this is all, I hope that this tab could help you,if you find any
corrections ... please mail me

Other versions of If I Could Fly

If I could flyChords

Almost there ...

Sign in to get your own page with links to favourite songs and more. You are just one click away...

Login with Facebook Login with Google