Log in

One click and you are in

Login with Facebook Login with Google

Why sign up and log in

Guitar Tabs Explorer
Hellacopters tabs for Hopeless case of a kid in denial

Hopeless Case Of A Kid In Denial tab by Hellacopters

Hellacopters tabs for Hopeless case of a kid in denial

Guitar tabs

Title: Hopeless case of a kid in denial
Album: High Visibility


Intro:	Intro Riff    x3

E--------------2--------------------------------5------------
B-----------2-----2-----2-------------------5-----5----5----
G--------4-----------4-------------------7-----------7------
D-----4-------------------------------7----------------------
A--2-------------------------------5-------------------------
Riff  1	  x2

			only this part twice
D--7-||---7--5-|-----5--7------5--7-----5--10-----7---9-----
A--5-||---5--3-|-----3--5------3--5-----3--8------5---7------


Little interlude part (almost sure its wrong)
G--10b--10b--10b--10p9/7--7--7h8--10--8--7---7---31b15--12p11-

G--13p11--9--10--10p9--7--8


Verse 1:


Riff 2	  x2

D-------5--7------5--7-----5--10-----7---10-----
A-------3--5------3--5-----3--8------5---8------

D-------5--7------5--7-----5--10-----7---9-----
A-------3--5------3--5-----3--8------5---7------


Riff 2b	  x2		. = staccato note
          . . .          . . .            .  .  .
D-----5/7-7-7-7------5/7-7-7-7------5/10-10-10-10----7--10----
A-----3/5-5-5-5------3/5-5-5-5------3/8---8--8--8-----5---8----

          . . .          . . .           .   .  .
D-----5/7-7-7-7------5/7-7-7-7------5/10-10-10-10----7---9----
A-----3/5-5-5-5------3/5-5-5-5------3/8---8--8--8-----5---7----


Chorus 1:	Riff 3  x1

D----5------7-----9----10---------------------------------
A----3------5-----7----8-------10----9-----7----5--------
E--------------------------------8-----7-----5----3---------


Verse 2 :   same as verse 1

Riff  2      x2

Riff  2b    x2


Chorus  2:	    Riff  3b    x1

D----5------7-----9----10-----------------------------7--10--
A----3------5-----7----8-------10----9-----7----5----5--8---
E--------------------------------8-----7-----5----3------------

D---10---9---7---5----7-7---10---|--10---9---7---5----7-7----9---|----10----9---
A---8----7---5---3----5-5----8---|--8----7---5---3----5-5----7---|-----8----7---
pm		      * *                             * *

7---5----7-7---10--
5---3----5-5----8---
	         * *


Solo  ( I didn't figure out )


Intro Riff    x3


Bridge :
D---7--5------7--5-----7--5-----7--5---
A---5--3------5--3-----5--3-----5--3---


Riff  2b   x1


Riff  3     x1


Ending :

D---5--7----5--7----5--7----
A---3--5----3--5----3--5----	fading...

So that's all.  I like Hellacopters!	R'n'R  Rulez!

Almost there ...

Sign in to get your own page with links to favourite songs and more. You are just one click away...

Login with Facebook Login with Google